ISO-10303-21;
HEADER;
/****************************************************************
 * Generated by software with PDElib inside                    *
 * PDElib Version v51a, created Wed 11/30/2011                  *
 * ITI Transcendata (http://www.transcendata.com/)              *
 ****************************************************************/
FILE_DESCRIPTION((''),'2;1');
FILE_NAME('\\\\VICIVMCAD12\\am\\VAULT,D-CL_VICI\\VICI\\TUBE\\5 Allg-Dokument\\522002.stp','2013-11-28T15:34:42',('Franzp'),(''),'Autodesk Inventor 2013','Autodesk Inventor 2013','');
FILE_SCHEMA(('AUTOMOTIVE_DESIGN { 1 0 10303 214 1 1 1 1 }'));
ENDSEC;
DATA;
#5=APPLICATION_CONTEXT('automotive design');
#6=APPLICATION_PROTOCOL_DEFINITION('International Standard','automotive_design',2001,#5);
#7=PRODUCT_CONTEXT('',#5,'mechanical');
#8=PRODUCT('522002','522002',$,(#7));
#9=PRODUCT_RELATED_PRODUCT_CATEGORY('part',$,(#8));
#10=PRODUCT_DEFINITION_FORMATION('',$,#8);
#11=PRODUCT_DEFINITION_CONTEXT('part definition',#5,'design');
#12=PRODUCT_DEFINITION('',$,#10,#11);
#18=(NAMED_UNIT(*)PLANE_ANGLE_UNIT()SI_UNIT($,.RADIAN.));
#19=DIMENSIONAL_EXPONENTS(0.0,0.0,0.0,0.0,0.0,0.0,0.0);
#20=PLANE_ANGLE_MEASURE_WITH_UNIT(PLANE_ANGLE_MEASURE(0.0174532925),#18);
#24=(CONVERSION_BASED_UNIT('DEGREE',#20)NAMED_UNIT(#19)PLANE_ANGLE_UNIT());
#28=(NAMED_UNIT(*)SI_UNIT($,.STERADIAN.)SOLID_ANGLE_UNIT());
#32=(LENGTH_UNIT()NAMED_UNIT(*)SI_UNIT(.MILLI.,.METRE.));
#34=UNCERTAINTY_MEASURE_WITH_UNIT(LENGTH_MEASURE(0.01),#32,'DISTANCE_ACCURACY_VALUE','');
#36=(GEOMETRIC_REPRESENTATION_CONTEXT(3)GLOBAL_UNCERTAINTY_ASSIGNED_CONTEXT((#34))GLOBAL_UNIT_ASSIGNED_CONTEXT((#24,#28,#32))REPRESENTATION_CONTEXT('None','None'));
#37=AXIS2_PLACEMENT_3D('',#38,#39,#40);
#38=CARTESIAN_POINT('',(0.0,0.0,0.0));
#39=DIRECTION('',(0.0,0.0,1.0));
#40=DIRECTION('',(1.0,0.0,0.0));
#41=SHAPE_REPRESENTATION('',(#37,#440,#613,#625),#36);
#42=PRODUCT_DEFINITION_SHAPE('','',#12);
#43=SHAPE_DEFINITION_REPRESENTATION(#42,#41);
#44=APPLICATION_CONTEXT('automotive design');
#45=APPLICATION_PROTOCOL_DEFINITION('International Standard','automotive_design',2001,#44);
#46=PRODUCT_CONTEXT('',#44,'mechanical');
#47=PRODUCT('522002','522002',$,(#46));
#48=PRODUCT_RELATED_PRODUCT_CATEGORY('part',$,(#47));
#49=PRODUCT_DEFINITION_FORMATION('',$,#47);
#50=PRODUCT_DEFINITION_CONTEXT('part definition',#44,'design');
#51=PRODUCT_DEFINITION('',$,#49,#50);
#57=(NAMED_UNIT(*)PLANE_ANGLE_UNIT()SI_UNIT($,.RADIAN.));
#58=DIMENSIONAL_EXPONENTS(0.0,0.0,0.0,0.0,0.0,0.0,0.0);
#59=PLANE_ANGLE_MEASURE_WITH_UNIT(PLANE_ANGLE_MEASURE(0.0174532925),#57);
#63=(CONVERSION_BASED_UNIT('DEGREE',#59)NAMED_UNIT(#58)PLANE_ANGLE_UNIT());
#67=(NAMED_UNIT(*)SI_UNIT($,.STERADIAN.)SOLID_ANGLE_UNIT());
#71=(LENGTH_UNIT()NAMED_UNIT(*)SI_UNIT(.MILLI.,.METRE.));
#73=UNCERTAINTY_MEASURE_WITH_UNIT(LENGTH_MEASURE(0.01),#71,'DISTANCE_ACCURACY_VALUE','');
#75=(GEOMETRIC_REPRESENTATION_CONTEXT(3)GLOBAL_UNCERTAINTY_ASSIGNED_CONTEXT((#73))GLOBAL_UNIT_ASSIGNED_CONTEXT((#63,#67,#71))REPRESENTATION_CONTEXT('None','None'));
#76=AXIS2_PLACEMENT_3D('',#77,#78,#79);
#77=CARTESIAN_POINT('',(0.0,0.0,0.0));
#78=DIRECTION('',(0.0,0.0,1.0));
#79=DIRECTION('',(1.0,0.0,0.0));
#80=SHAPE_REPRESENTATION('',(#76),#75);
#81=PRODUCT_DEFINITION_SHAPE('','',#51);
#82=SHAPE_DEFINITION_REPRESENTATION(#81,#80);
#88=(NAMED_UNIT(*)PLANE_ANGLE_UNIT()SI_UNIT($,.RADIAN.));
#89=DIMENSIONAL_EXPONENTS(0.0,0.0,0.0,0.0,0.0,0.0,0.0);
#90=PLANE_ANGLE_MEASURE_WITH_UNIT(PLANE_ANGLE_MEASURE(0.0174532925),#88);
#94=(CONVERSION_BASED_UNIT('DEGREE',#90)NAMED_UNIT(#89)PLANE_ANGLE_UNIT());
#98=(NAMED_UNIT(*)SI_UNIT($,.STERADIAN.)SOLID_ANGLE_UNIT());
#102=(LENGTH_UNIT()NAMED_UNIT(*)SI_UNIT(.MILLI.,.METRE.));
#104=UNCERTAINTY_MEASURE_WITH_UNIT(LENGTH_MEASURE(0.000001),#102,'DISTANCE_ACCURACY_VALUE','');
#106=(GEOMETRIC_REPRESENTATION_CONTEXT(3)GLOBAL_UNCERTAINTY_ASSIGNED_CONTEXT((#104))GLOBAL_UNIT_ASSIGNED_CONTEXT((#94,#98,#102))REPRESENTATION_CONTEXT('','3D'));
#107=CARTESIAN_POINT('',(43.935684552103744,-6.33095112072624,3.330669E-015));
#108=DIRECTION('',(-0.887010833178222,-0.461748613235034,0.0));
#109=DIRECTION('',(-0.461748613235034,0.887010833178222,0.0));
#110=AXIS2_PLACEMENT_3D('',#107,#108,#109);
#111=CYLINDRICAL_SURFACE('',#110,0.0508);
#112=CARTESIAN_POINT('',(12.456064630498345,-22.775475018707155,3.336890E-015));
#113=VERTEX_POINT('',#112);
#114=CARTESIAN_POINT('',(12.432607800946002,-22.730414868381715,3.330669E-015));
#115=DIRECTION('',(0.887010833178222,0.461748613235034,0.0));
#116=DIRECTION('',(-0.461748613235034,0.887010833178222,0.0));
#117=AXIS2_PLACEMENT_3D('',#114,#115,#116);
#118=CIRCLE('',#117,0.0508);
#119=EDGE_CURVE('',#113,#113,#118,.T.);
#120=ORIENTED_EDGE('',*,*,#119,.F.);
#121=EDGE_LOOP('',(#120));
#122=FACE_OUTER_BOUND('',#121,.T.);
#123=CARTESIAN_POINT('',(43.959141381656082,-6.376011271051683,3.336890E-015));
#124=VERTEX_POINT('',#123);
#125=CARTESIAN_POINT('',(43.935684552103744,-6.33095112072624,3.330669E-015));
#126=DIRECTION('',(0.88701083317822,0.461748613235038,0.0));
#127=DIRECTION('',(-0.461748613235038,0.88701083317822,0.0));
#128=AXIS2_PLACEMENT_3D('',#125,#126,#127);
#129=CIRCLE('',#128,0.0508);
#130=EDGE_CURVE('',#124,#124,#129,.T.);
#131=ORIENTED_EDGE('',*,*,#130,.T.);
#132=EDGE_LOOP('',(#131));
#133=FACE_BOUND('',#132,.T.);
#134=ADVANCED_FACE('',(#122,#133),#111,.F.);
#135=CARTESIAN_POINT('',(40.640000000000001,0.0,3.330669E-015));
#136=DIRECTION('',(0.0,0.0,-1.0));
#137=DIRECTION('',(-1.0,0.0,0.0));
#138=AXIS2_PLACEMENT_3D('',#135,#136,#137);
#139=TOROIDAL_SURFACE('',#138,7.13740000000001,0.0508);
#140=ORIENTED_EDGE('',*,*,#130,.F.);
#141=EDGE_LOOP('',(#140));
#142=FACE_OUTER_BOUND('',#141,.T.);
#143=CARTESIAN_POINT('',(43.959141381656046,6.3760112710517,3.336890E-015));
#144=VERTEX_POINT('',#143);
#145=CARTESIAN_POINT('',(43.935684552103723,6.330951120726254,3.330669E-015));
#146=DIRECTION('',(-0.887010833178223,0.461748613235031,0.0));
#147=DIRECTION('',(-0.461748613235031,-0.887010833178223,0.0));
#148=AXIS2_PLACEMENT_3D('',#145,#146,#147);
#149=CIRCLE('',#148,0.0508);
#150=EDGE_CURVE('',#144,#144,#149,.T.);
#151=ORIENTED_EDGE('',*,*,#150,.T.);
#152=EDGE_LOOP('',(#151));
#153=FACE_BOUND('',#152,.T.);
#154=ADVANCED_FACE('',(#142,#153),#139,.F.);
#155=CARTESIAN_POINT('',(3.295684552103708,27.486796055149227,3.330669E-015));
#156=DIRECTION('',(0.887010833178222,-0.461748613235034,0.0));
#157=DIRECTION('',(-0.461748613235034,-0.887010833178222,0.0));
#158=AXIS2_PLACEMENT_3D('',#155,#156,#157);
#159=CYLINDRICAL_SURFACE('',#158,0.0508);
#160=ORIENTED_EDGE('',*,*,#150,.F.);
#161=EDGE_LOOP('',(#160));
#162=FACE_OUTER_BOUND('',#161,.T.);
#163=CARTESIAN_POINT('',(3.319141381656041,27.531856205474668,3.336890E-015));
#164=VERTEX_POINT('',#163);
#165=CARTESIAN_POINT('',(3.295684552103708,27.486796055149227,3.330669E-015));
#166=DIRECTION('',(-0.887010833178223,0.461748613235031,0.0));
#167=DIRECTION('',(-0.461748613235031,-0.887010833178223,0.0));
#168=AXIS2_PLACEMENT_3D('',#165,#166,#167);
#169=CIRCLE('',#168,0.0508);
#170=EDGE_CURVE('',#164,#164,#169,.T.);
#171=ORIENTED_EDGE('',*,*,#170,.T.);
#172=EDGE_LOOP('',(#171));
#173=FACE_BOUND('',#172,.T.);
#174=ADVANCED_FACE('',(#162,#173),#159,.F.);
#175=CARTESIAN_POINT('',(-4.440892E-015,21.155844934422969,3.330669E-015));
#176=DIRECTION('',(0.0,0.0,-1.0));
#177=DIRECTION('',(-1.0,0.0,0.0));
#178=AXIS2_PLACEMENT_3D('',#175,#176,#177);
#179=TOROIDAL_SURFACE('',#178,7.137399999999988,0.0508);
#180=ORIENTED_EDGE('',*,*,#170,.F.);
#181=EDGE_LOOP('',(#180));
#182=FACE_OUTER_BOUND('',#181,.T.);
#183=CARTESIAN_POINT('',(-3.319141381656063,27.531856205474661,3.336890E-015));
#184=VERTEX_POINT('',#183);
#185=CARTESIAN_POINT('',(-3.295684552103726,27.486796055149199,3.330669E-015));
#186=DIRECTION('',(-0.887010833178221,-0.461748613235034,0.0));
#187=DIRECTION('',(0.461748613235034,-0.887010833178221,0.0));
#188=AXIS2_PLACEMENT_3D('',#185,#186,#187);
#189=CIRCLE('',#188,0.0508);
#190=EDGE_CURVE('',#184,#184,#189,.T.);
#191=ORIENTED_EDGE('',*,*,#190,.T.);
#192=EDGE_LOOP('',(#191));
#193=FACE_BOUND('',#192,.T.);
#194=ADVANCED_FACE('',(#182,#193),#179,.F.);
#195=CARTESIAN_POINT('',(-43.935684552103744,6.330951120726232,3.330669E-015));
#196=DIRECTION('',(0.887010833178222,0.461748613235034,0.0));
#197=DIRECTION('',(0.461748613235034,-0.887010833178222,0.0));
#198=AXIS2_PLACEMENT_3D('',#195,#196,#197);
#199=CYLINDRICAL_SURFACE('',#198,0.0508);
#200=ORIENTED_EDGE('',*,*,#190,.F.);
#201=EDGE_LOOP('',(#200));
#202=FACE_OUTER_BOUND('',#201,.T.);
#203=CARTESIAN_POINT('',(-43.959141381656089,6.37601127105169,3.336890E-015));
#204=VERTEX_POINT('',#203);
#205=CARTESIAN_POINT('',(-43.935684552103744,6.330951120726232,3.330669E-015));
#206=DIRECTION('',(-0.887010833178221,-0.461748613235034,0.0));
#207=DIRECTION('',(0.461748613235034,-0.887010833178221,0.0));
#208=AXIS2_PLACEMENT_3D('',#205,#206,#207);
#209=CIRCLE('',#208,0.0508);
#210=EDGE_CURVE('',#204,#204,#209,.T.);
#211=ORIENTED_EDGE('',*,*,#210,.T.);
#212=EDGE_LOOP('',(#211));
#213=FACE_BOUND('',#212,.T.);
#214=ADVANCED_FACE('',(#202,#213),#199,.F.);
#215=CARTESIAN_POINT('',(-40.640000000000001,0.0,3.330669E-015));
#216=DIRECTION('',(0.0,0.0,-1.0));
#217=DIRECTION('',(-1.0,0.0,0.0));
#218=AXIS2_PLACEMENT_3D('',#215,#216,#217);
#219=TOROIDAL_SURFACE('',#218,7.137399999999998,0.0508);
#220=ORIENTED_EDGE('',*,*,#210,.F.);
#221=EDGE_LOOP('',(#220));
#222=FACE_OUTER_BOUND('',#221,.T.);
#223=CARTESIAN_POINT('',(-43.959141381656067,-6.376011271051702,3.336890E-015));
#224=VERTEX_POINT('',#223);
#225=CARTESIAN_POINT('',(-43.935684552103723,-6.33095112072624,3.330669E-015));
#226=DIRECTION('',(0.887010833178221,-0.461748613235034,0.0));
#227=DIRECTION('',(0.461748613235034,0.887010833178221,0.0));
#228=AXIS2_PLACEMENT_3D('',#225,#226,#227);
#229=CIRCLE('',#228,0.0508);
#230=EDGE_CURVE('',#224,#224,#229,.T.);
#231=ORIENTED_EDGE('',*,*,#230,.T.);
#232=EDGE_LOOP('',(#231));
#233=FACE_BOUND('',#232,.T.);
#234=ADVANCED_FACE('',(#222,#233),#219,.F.);
#235=CARTESIAN_POINT('',(-12.432607800945998,-22.730414868381711,3.330669E-015));
#236=DIRECTION('',(-0.887010833178222,0.461748613235034,0.0));
#237=DIRECTION('',(0.461748613235034,0.887010833178222,0.0));
#238=AXIS2_PLACEMENT_3D('',#235,#236,#237);
#239=CYLINDRICAL_SURFACE('',#238,0.0508);
#240=ORIENTED_EDGE('',*,*,#230,.F.);
#241=EDGE_LOOP('',(#240));
#242=FACE_OUTER_BOUND('',#241,.T.);
#243=CARTESIAN_POINT('',(-12.456064630498339,-22.775475018707173,3.336890E-015));
#244=VERTEX_POINT('',#243);
#245=CARTESIAN_POINT('',(-12.432607800945998,-22.730414868381711,3.330669E-015));
#246=DIRECTION('',(-0.887010833178222,0.461748613235034,0.0));
#247=DIRECTION('',(0.461748613235034,0.887010833178222,0.0));
#248=AXIS2_PLACEMENT_3D('',#245,#246,#247);
#249=CIRCLE('',#248,0.0508);
#250=EDGE_CURVE('',#244,#244,#249,.T.);
#251=ORIENTED_EDGE('',*,*,#250,.F.);
#252=EDGE_LOOP('',(#251));
#253=FACE_BOUND('',#252,.T.);
#254=ADVANCED_FACE('',(#242,#253),#239,.F.);
#255=CARTESIAN_POINT('',(43.935684552103744,-6.33095112072624,3.330669E-015));
#256=DIRECTION('',(-0.887010833178222,-0.461748613235034,0.0));
#257=DIRECTION('',(-0.461748613235034,0.887010833178222,0.0));
#258=AXIS2_PLACEMENT_3D('',#255,#256,#257);
#259=CYLINDRICAL_SURFACE('',#258,0.7874);
#260=CARTESIAN_POINT('',(12.796188659007273,-23.428847198426233,3.427098E-015));
#261=VERTEX_POINT('',#260);
#262=CARTESIAN_POINT('',(12.432607800946016,-22.730414868381708,3.330669E-015));
#263=DIRECTION('',(0.88701083317822,0.461748613235038,0.0));
#264=DIRECTION('',(-0.461748613235038,0.88701083317822,0.0));
#265=AXIS2_PLACEMENT_3D('',#262,#263,#264);
#266=CIRCLE('',#265,0.787400000000001);
#267=EDGE_CURVE('',#261,#261,#266,.T.);
#268=ORIENTED_EDGE('',*,*,#267,.T.);
#269=EDGE_LOOP('',(#268));
#270=FACE_OUTER_BOUND('',#269,.T.);
#271=CARTESIAN_POINT('',(44.299265410165006,-7.02938345077076,3.427098E-015));
#272=VERTEX_POINT('',#271);
#273=CARTESIAN_POINT('',(43.935684552103744,-6.33095112072624,3.330669E-015));
#274=DIRECTION('',(0.887010833178219,0.461748613235038,0.0));
#275=DIRECTION('',(-0.461748613235038,0.88701083317822,0.0));
#276=AXIS2_PLACEMENT_3D('',#273,#274,#275);
#277=CIRCLE('',#276,0.7874);
#278=EDGE_CURVE('',#272,#272,#277,.T.);
#279=ORIENTED_EDGE('',*,*,#278,.F.);
#280=EDGE_LOOP('',(#279));
#281=FACE_BOUND('',#280,.T.);
#282=ADVANCED_FACE('',(#270,#281),#259,.T.);
#283=CARTESIAN_POINT('',(40.640000000000001,0.0,3.330669E-015));
#284=DIRECTION('',(0.0,0.0,-1.0));
#285=DIRECTION('',(-1.0,0.0,0.0));
#286=AXIS2_PLACEMENT_3D('',#283,#284,#285);
#287=TOROIDAL_SURFACE('',#286,7.13740000000001,0.7874);
#288=ORIENTED_EDGE('',*,*,#278,.T.);
#289=EDGE_LOOP('',(#288));
#290=FACE_OUTER_BOUND('',#289,.T.);
#291=CARTESIAN_POINT('',(44.299265410164985,7.029383450770772,3.427098E-015));
#292=VERTEX_POINT('',#291);
#293=CARTESIAN_POINT('',(43.935684552103723,6.330951120726254,3.330669E-015));
#294=DIRECTION('',(-0.887010833178223,0.461748613235031,0.0));
#295=DIRECTION('',(-0.461748613235031,-0.887010833178223,0.0));
#296=AXIS2_PLACEMENT_3D('',#293,#294,#295);
#297=CIRCLE('',#296,0.7874);
#298=EDGE_CURVE('',#292,#292,#297,.T.);
#299=ORIENTED_EDGE('',*,*,#298,.F.);
#300=EDGE_LOOP('',(#299));
#301=FACE_BOUND('',#300,.T.);
#302=ADVANCED_FACE('',(#290,#301),#287,.T.);
#303=CARTESIAN_POINT('',(3.295684552103708,27.486796055149227,3.330669E-015));
#304=DIRECTION('',(0.887010833178222,-0.461748613235034,0.0));
#305=DIRECTION('',(-0.461748613235034,-0.887010833178222,0.0));
#306=AXIS2_PLACEMENT_3D('',#303,#304,#305);
#307=CYLINDRICAL_SURFACE('',#306,0.7874);
#308=ORIENTED_EDGE('',*,*,#298,.T.);
#309=EDGE_LOOP('',(#308));
#310=FACE_OUTER_BOUND('',#309,.T.);
#311=CARTESIAN_POINT('',(3.659265410164965,28.185228385193746,3.427098E-015));
#312=VERTEX_POINT('',#311);
#313=CARTESIAN_POINT('',(3.295684552103708,27.486796055149227,3.330669E-015));
#314=DIRECTION('',(-0.887010833178223,0.461748613235031,0.0));
#315=DIRECTION('',(-0.461748613235031,-0.887010833178223,0.0));
#316=AXIS2_PLACEMENT_3D('',#313,#314,#315);
#317=CIRCLE('',#316,0.7874);
#318=EDGE_CURVE('',#312,#312,#317,.T.);
#319=ORIENTED_EDGE('',*,*,#318,.F.);
#320=EDGE_LOOP('',(#319));
#321=FACE_BOUND('',#320,.T.);
#322=ADVANCED_FACE('',(#310,#321),#307,.T.);
#323=CARTESIAN_POINT('',(-4.440892E-015,21.155844934422969,3.330669E-015));
#324=DIRECTION('',(0.0,0.0,-1.0));
#325=DIRECTION('',(-1.0,0.0,0.0));
#326=AXIS2_PLACEMENT_3D('',#323,#324,#325);
#327=TOROIDAL_SURFACE('',#326,7.137399999999988,0.7874);
#328=ORIENTED_EDGE('',*,*,#318,.T.);
#329=EDGE_LOOP('',(#328));
#330=FACE_OUTER_BOUND('',#329,.T.);
#331=CARTESIAN_POINT('',(-3.659265410164991,28.185228385193739,3.427098E-015));
#332=VERTEX_POINT('',#331);
#333=CARTESIAN_POINT('',(-3.295684552103726,27.486796055149199,3.330669E-015));
#334=DIRECTION('',(-0.887010833178222,-0.461748613235034,0.0));
#335=DIRECTION('',(0.461748613235034,-0.887010833178222,0.0));
#336=AXIS2_PLACEMENT_3D('',#333,#334,#335);
#337=CIRCLE('',#336,0.7874);
#338=EDGE_CURVE('',#332,#332,#337,.T.);
#339=ORIENTED_EDGE('',*,*,#338,.F.);
#340=EDGE_LOOP('',(#339));
#341=FACE_BOUND('',#340,.T.);
#342=ADVANCED_FACE('',(#330,#341),#327,.T.);
#343=CARTESIAN_POINT('',(-43.935684552103744,6.330951120726232,3.330669E-015));
#344=DIRECTION('',(0.887010833178222,0.461748613235034,0.0));
#345=DIRECTION('',(0.461748613235034,-0.887010833178222,0.0));
#346=AXIS2_PLACEMENT_3D('',#343,#344,#345);
#347=CYLINDRICAL_SURFACE('',#346,0.7874);
#348=ORIENTED_EDGE('',*,*,#338,.T.);
#349=EDGE_LOOP('',(#348));
#350=FACE_OUTER_BOUND('',#349,.T.);
#351=CARTESIAN_POINT('',(-44.29926541016502,7.029383450770766,3.427098E-015));
#352=VERTEX_POINT('',#351);
#353=CARTESIAN_POINT('',(-43.935684552103744,6.330951120726232,3.330669E-015));
#354=DIRECTION('',(-0.887010833178222,-0.461748613235034,0.0));
#355=DIRECTION('',(0.461748613235034,-0.887010833178222,0.0));
#356=AXIS2_PLACEMENT_3D('',#353,#354,#355);
#357=CIRCLE('',#356,0.7874);
#358=EDGE_CURVE('',#352,#352,#357,.T.);
#359=ORIENTED_EDGE('',*,*,#358,.F.);
#360=EDGE_LOOP('',(#359));
#361=FACE_BOUND('',#360,.T.);
#362=ADVANCED_FACE('',(#350,#361),#347,.T.);
#363=CARTESIAN_POINT('',(-40.640000000000001,0.0,3.330669E-015));
#364=DIRECTION('',(0.0,0.0,-1.0));
#365=DIRECTION('',(-1.0,0.0,0.0));
#366=AXIS2_PLACEMENT_3D('',#363,#364,#365);
#367=TOROIDAL_SURFACE('',#366,7.137399999999998,0.7874);
#368=ORIENTED_EDGE('',*,*,#358,.T.);
#369=EDGE_LOOP('',(#368));
#370=FACE_OUTER_BOUND('',#369,.T.);
#371=CARTESIAN_POINT('',(-44.299265410164992,-7.029383450770776,3.427098E-015));
#372=VERTEX_POINT('',#371);
#373=CARTESIAN_POINT('',(-43.935684552103723,-6.33095112072624,3.330669E-015));
#374=DIRECTION('',(0.887010833178221,-0.461748613235034,0.0));
#375=DIRECTION('',(0.461748613235034,0.887010833178221,0.0));
#376=AXIS2_PLACEMENT_3D('',#373,#374,#375);
#377=CIRCLE('',#376,0.7874);
#378=EDGE_CURVE('',#372,#372,#377,.T.);
#379=ORIENTED_EDGE('',*,*,#378,.F.);
#380=EDGE_LOOP('',(#379));
#381=FACE_BOUND('',#380,.T.);
#382=ADVANCED_FACE('',(#370,#381),#367,.T.);
#383=CARTESIAN_POINT('',(-12.432607800945998,-22.730414868381711,3.330669E-015));
#384=DIRECTION('',(-0.887010833178222,0.461748613235034,0.0));
#385=DIRECTION('',(0.461748613235034,0.887010833178222,0.0));
#386=AXIS2_PLACEMENT_3D('',#383,#384,#385);
#387=CYLINDRICAL_SURFACE('',#386,0.7874);
#388=ORIENTED_EDGE('',*,*,#378,.T.);
#389=EDGE_LOOP('',(#388));
#390=FACE_OUTER_BOUND('',#389,.T.);
#391=CARTESIAN_POINT('',(-12.796188659007264,-23.428847198426247,3.427098E-015));
#392=VERTEX_POINT('',#391);
#393=CARTESIAN_POINT('',(-12.432607800945998,-22.730414868381711,3.330669E-015));
#394=DIRECTION('',(0.887010833178221,-0.461748613235034,0.0));
#395=DIRECTION('',(0.461748613235034,0.887010833178221,0.0));
#396=AXIS2_PLACEMENT_3D('',#393,#394,#395);
#397=CIRCLE('',#396,0.7874);
#398=EDGE_CURVE('',#392,#392,#397,.T.);
#399=ORIENTED_EDGE('',*,*,#398,.F.);
#400=EDGE_LOOP('',(#399));
#401=FACE_BOUND('',#400,.T.);
#402=ADVANCED_FACE('',(#390,#401),#387,.T.);
#403=CARTESIAN_POINT('',(12.432607800946007,-22.730414868381708,0.0));
#404=DIRECTION('',(0.887010833178222,0.461748613235034,0.0));
#405=DIRECTION('',(0.0,0.0,-1.0));
#406=AXIS2_PLACEMENT_3D('',#403,#404,#405);
#407=PLANE('',#406);
#408=ORIENTED_EDGE('',*,*,#267,.F.);
#409=EDGE_LOOP('',(#408));
#410=FACE_OUTER_BOUND('',#409,.T.);
#411=ORIENTED_EDGE('',*,*,#119,.T.);
#412=EDGE_LOOP('',(#411));
#413=FACE_BOUND('',#412,.T.);
#414=ADVANCED_FACE('',(#410,#413),#407,.F.);
#415=CARTESIAN_POINT('',(-12.432607800945998,-22.730414868381711,3.330669E-015));
#416=DIRECTION('',(0.887010833178221,-0.461748613235034,0.0));
#417=DIRECTION('',(0.0,0.0,-1.0));
#418=AXIS2_PLACEMENT_3D('',#415,#416,#417);
#419=PLANE('',#418);
#420=ORIENTED_EDGE('',*,*,#398,.T.);
#421=EDGE_LOOP('',(#420));
#422=FACE_OUTER_BOUND('',#421,.T.);
#423=ORIENTED_EDGE('',*,*,#250,.T.);
#424=EDGE_LOOP('',(#423));
#425=FACE_BOUND('',#424,.T.);
#426=ADVANCED_FACE('',(#422,#425),#419,.T.);
#427=CLOSED_SHELL('',(#134,#154,#174,#194,#214,#234,#254,#282,#302,#322,#342,#362,#382,#402,#414,#426));
#428=MANIFOLD_SOLID_BREP('Volumenk\S\vrper1',#427);
#429=COLOUR_RGB('Metall - Stahl',0.639216005802155,0.639216005802155,0.662745475769043);
#430=FILL_AREA_STYLE_COLOUR('Metall - Stahl',#429);
#431=FILL_AREA_STYLE('Metall - Stahl',(#430));
#432=SURFACE_STYLE_FILL_AREA(#431);
#433=SURFACE_SIDE_STYLE('Metall - Stahl',(#432));
#434=SURFACE_STYLE_USAGE(.BOTH.,#433);
#435=PRESENTATION_STYLE_ASSIGNMENT((#434));
#436=STYLED_ITEM('',(#435),#428);
#437=MECHANICAL_DESIGN_GEOMETRIC_PRESENTATION_REPRESENTATION('',(#436,#610),#36);
#438=ADVANCED_BREP_SHAPE_REPRESENTATION('ABSR',(#428),#75);
#439=SHAPE_REPRESENTATION_RELATIONSHIP('SRR','None',#438,#80);
#440=AXIS2_PLACEMENT_3D('',#441,#442,#443);
#441=CARTESIAN_POINT('',(0.0,0.0,0.0));
#442=DIRECTION('',(0.0,0.0,1.0));
#443=DIRECTION('',(1.0,0.0,0.0));
#444=NEXT_ASSEMBLY_USAGE_OCCURRENCE('522002:1','522002:1','522002:1',#12,#51,'522002:1');
#445=PRODUCT_DEFINITION_SHAPE('522002:1','522002:1',#444);
#446=ITEM_DEFINED_TRANSFORMATION('522002:1','522002:1',#76,#440);
#450=(REPRESENTATION_RELATIONSHIP('522002:1','522002:1',#80,#41)REPRESENTATION_RELATIONSHIP_WITH_TRANSFORMATION(#446)SHAPE_REPRESENTATION_RELATIONSHIP());
#451=CONTEXT_DEPENDENT_SHAPE_REPRESENTATION(#450,#445);
#452=APPLICATION_CONTEXT('automotive design');
#453=APPLICATION_PROTOCOL_DEFINITION('International Standard','automotive_design',2001,#452);
#454=PRODUCT_CONTEXT('',#452,'mechanical');
#455=PRODUCT('446806','446806',$,(#454));
#456=PRODUCT_RELATED_PRODUCT_CATEGORY('part',$,(#455));
#457=PRODUCT_DEFINITION_FORMATION('',$,#455);
#458=PRODUCT_DEFINITION_CONTEXT('part definition',#452,'design');
#459=PRODUCT_DEFINITION('',$,#457,#458);
#465=(NAMED_UNIT(*)PLANE_ANGLE_UNIT()SI_UNIT($,.RADIAN.));
#466=DIMENSIONAL_EXPONENTS(0.0,0.0,0.0,0.0,0.0,0.0,0.0);
#467=PLANE_ANGLE_MEASURE_WITH_UNIT(PLANE_ANGLE_MEASURE(0.0174532925),#465);
#471=(CONVERSION_BASED_UNIT('DEGREE',#467)NAMED_UNIT(#466)PLANE_ANGLE_UNIT());
#475=(NAMED_UNIT(*)SI_UNIT($,.STERADIAN.)SOLID_ANGLE_UNIT());
#479=(LENGTH_UNIT()NAMED_UNIT(*)SI_UNIT(.MILLI.,.METRE.));
#481=UNCERTAINTY_MEASURE_WITH_UNIT(LENGTH_MEASURE(0.01),#479,'DISTANCE_ACCURACY_VALUE','');
#483=(GEOMETRIC_REPRESENTATION_CONTEXT(3)GLOBAL_UNCERTAINTY_ASSIGNED_CONTEXT((#481))GLOBAL_UNIT_ASSIGNED_CONTEXT((#471,#475,#479))REPRESENTATION_CONTEXT('None','None'));
#484=AXIS2_PLACEMENT_3D('',#485,#486,#487);
#485=CARTESIAN_POINT('',(0.0,0.0,0.0));
#486=DIRECTION('',(0.0,0.0,1.0));
#487=DIRECTION('',(1.0,0.0,0.0));
#488=SHAPE_REPRESENTATION('',(#484),#483);
#489=PRODUCT_DEFINITION_SHAPE('','',#459);
#490=SHAPE_DEFINITION_REPRESENTATION(#489,#488);
#496=(NAMED_UNIT(*)PLANE_ANGLE_UNIT()SI_UNIT($,.RADIAN.));
#497=DIMENSIONAL_EXPONENTS(0.0,0.0,0.0,0.0,0.0,0.0,0.0);
#498=PLANE_ANGLE_MEASURE_WITH_UNIT(PLANE_ANGLE_MEASURE(0.0174532925),#496);
#502=(CONVERSION_BASED_UNIT('DEGREE',#498)NAMED_UNIT(#497)PLANE_ANGLE_UNIT());
#506=(NAMED_UNIT(*)SI_UNIT($,.STERADIAN.)SOLID_ANGLE_UNIT());
#510=(LENGTH_UNIT()NAMED_UNIT(*)SI_UNIT(.MILLI.,.METRE.));
#512=UNCERTAINTY_MEASURE_WITH_UNIT(LENGTH_MEASURE(0.000001),#510,'DISTANCE_ACCURACY_VALUE','');
#514=(GEOMETRIC_REPRESENTATION_CONTEXT(3)GLOBAL_UNCERTAINTY_ASSIGNED_CONTEXT((#512))GLOBAL_UNIT_ASSIGNED_CONTEXT((#502,#506,#510))REPRESENTATION_CONTEXT('','3D'));
#515=CARTESIAN_POINT('',(0.0,0.0,6.350000000000001));
#516=DIRECTION('',(0.0,0.0,1.0));
#517=DIRECTION('',(1.0,0.0,0.0));
#518=AXIS2_PLACEMENT_3D('',#515,#516,#517);
#519=CYLINDRICAL_SURFACE('',#518,0.7874);
#520=CARTESIAN_POINT('',(0.7874,0.0,9.525000000000002));
#521=VERTEX_POINT('',#520);
#522=CARTESIAN_POINT('',(0.0,0.0,9.525000000000002));
#523=DIRECTION('',(0.0,0.0,-1.0));
#524=DIRECTION('',(1.0,0.0,0.0));
#525=AXIS2_PLACEMENT_3D('',#522,#523,#524);
#526=CIRCLE('',#525,0.7874);
#527=EDGE_CURVE('',#521,#521,#526,.T.);
#528=ORIENTED_EDGE('',*,*,#527,.F.);
#529=EDGE_LOOP('',(#528));
#530=FACE_OUTER_BOUND('',#529,.T.);
#531=CARTESIAN_POINT('',(0.7874,0.0,3.175000000000001));
#532=VERTEX_POINT('',#531);
#533=CARTESIAN_POINT('',(0.0,0.0,3.175000000000001));
#534=DIRECTION('',(0.0,0.0,1.0));
#535=DIRECTION('',(1.0,0.0,0.0));
#536=AXIS2_PLACEMENT_3D('',#533,#534,#535);
#537=CIRCLE('',#536,0.7874);
#538=EDGE_CURVE('',#532,#532,#537,.T.);
#539=ORIENTED_EDGE('',*,*,#538,.F.);
#540=EDGE_LOOP('',(#539));
#541=FACE_BOUND('',#540,.T.);
#542=ADVANCED_FACE('',(#530,#541),#519,.F.);
#543=CARTESIAN_POINT('',(0.0,0.0,3.175000000000001));
#544=DIRECTION('',(0.0,0.0,1.0));
#545=DIRECTION('',(1.0,0.0,0.0));
#546=AXIS2_PLACEMENT_3D('',#543,#544,#545);
#547=PLANE('',#546);
#548=ORIENTED_EDGE('',*,*,#538,.T.);
#549=EDGE_LOOP('',(#548));
#550=FACE_OUTER_BOUND('',#549,.T.);
#551=ADVANCED_FACE('',(#550),#547,.T.);
#552=CARTESIAN_POINT('',(0.0,0.0,0.0));
#553=DIRECTION('',(0.0,0.0,1.0));
#554=DIRECTION('',(-1.0,0.0,0.0));
#555=AXIS2_PLACEMENT_3D('',#552,#553,#554);
#556=CYLINDRICAL_SURFACE('',#555,1.905);
#557=CARTESIAN_POINT('',(1.905,2.332875E-016,9.525000000000002));
#558=VERTEX_POINT('',#557);
#559=CARTESIAN_POINT('',(0.0,0.0,9.525000000000002));
#560=DIRECTION('',(0.0,0.0,-1.0));
#561=DIRECTION('',(-1.0,0.0,0.0));
#562=AXIS2_PLACEMENT_3D('',#559,#560,#561);
#563=CIRCLE('',#562,1.905);
#564=EDGE_CURVE('',#558,#558,#563,.T.);
#565=ORIENTED_EDGE('',*,*,#564,.T.);
#566=EDGE_LOOP('',(#565));
#567=FACE_OUTER_BOUND('',#566,.T.);
#568=CARTESIAN_POINT('',(1.905,2.332875E-016,0.0));
#569=VERTEX_POINT('',#568);
#570=CARTESIAN_POINT('',(0.0,0.0,0.0));
#571=DIRECTION('',(0.0,0.0,-1.0));
#572=DIRECTION('',(-1.0,0.0,0.0));
#573=AXIS2_PLACEMENT_3D('',#570,#571,#572);
#574=CIRCLE('',#573,1.905);
#575=EDGE_CURVE('',#569,#569,#574,.T.);
#576=ORIENTED_EDGE('',*,*,#575,.F.);
#577=EDGE_LOOP('',(#576));
#578=FACE_BOUND('',#577,.T.);
#579=ADVANCED_FACE('',(#567,#578),#556,.T.);
#580=CARTESIAN_POINT('',(0.0,0.0,9.525000000000002));
#581=DIRECTION('',(0.0,0.0,-1.0));
#582=DIRECTION('',(-1.0,0.0,0.0));
#583=AXIS2_PLACEMENT_3D('',#580,#581,#582);
#584=PLANE('',#583);
#585=ORIENTED_EDGE('',*,*,#564,.F.);
#586=EDGE_LOOP('',(#585));
#587=FACE_OUTER_BOUND('',#586,.T.);
#588=ORIENTED_EDGE('',*,*,#527,.T.);
#589=EDGE_LOOP('',(#588));
#590=FACE_BOUND('',#589,.T.);
#591=ADVANCED_FACE('',(#587,#590),#584,.F.);
#592=CARTESIAN_POINT('',(0.0,0.0,0.0));
#593=DIRECTION('',(0.0,0.0,-1.0));
#594=DIRECTION('',(-1.0,0.0,0.0));
#595=AXIS2_PLACEMENT_3D('',#592,#593,#594);
#596=PLANE('',#595);
#597=ORIENTED_EDGE('',*,*,#575,.T.);
#598=EDGE_LOOP('',(#597));
#599=FACE_OUTER_BOUND('',#598,.T.);
#600=ADVANCED_FACE('',(#599),#596,.T.);
#601=CLOSED_SHELL('',(#542,#551,#579,#591,#600));
#602=MANIFOLD_SOLID_BREP('Volumenk\S\vrper1',#601);
#603=COLOUR_RGB('Polycarbonat - klar',0.800000011920929,0.800000011920929,0.800000011920929);
#604=FILL_AREA_STYLE_COLOUR('Polycarbonat - klar',#603);
#605=FILL_AREA_STYLE('Polycarbonat - klar',(#604));
#606=SURFACE_STYLE_FILL_AREA(#605);
#607=SURFACE_SIDE_STYLE('Polycarbonat - klar',(#606));
#608=SURFACE_STYLE_USAGE(.BOTH.,#607);
#609=PRESENTATION_STYLE_ASSIGNMENT((#608));
#610=STYLED_ITEM('',(#609),#602);
#611=ADVANCED_BREP_SHAPE_REPRESENTATION('ABSR',(#602),#483);
#612=SHAPE_REPRESENTATION_RELATIONSHIP('SRR','None',#611,#488);
#613=AXIS2_PLACEMENT_3D('',#614,#615,#616);
#614=CARTESIAN_POINT('',(9.616348405605153,-24.196466715402941,3.330669E-015));
#615=DIRECTION('',(0.887010833178222,0.461748613235034,-8.524887E-016));
#616=DIRECTION('',(0.233094617368669,-0.447770593858396,-0.863231367959631));
#617=NEXT_ASSEMBLY_USAGE_OCCURRENCE('CAP A-1/16:1','CAP A-1/16:1','CAP A-1/16:1',#12,#459,'CAP A-1/16:1');
#618=PRODUCT_DEFINITION_SHAPE('CAP A-1/16:1','CAP A-1/16:1',#617);
#619=ITEM_DEFINED_TRANSFORMATION('CAP A-1/16:1','CAP A-1/16:1',#484,#613);
#623=(REPRESENTATION_RELATIONSHIP('CAP A-1/16:1','CAP A-1/16:1',#488,#41)REPRESENTATION_RELATIONSHIP_WITH_TRANSFORMATION(#619)SHAPE_REPRESENTATION_RELATIONSHIP());
#624=CONTEXT_DEPENDENT_SHAPE_REPRESENTATION(#623,#618);
#625=AXIS2_PLACEMENT_3D('',#626,#627,#628);
#626=CARTESIAN_POINT('',(-9.616348405605137,-24.196466715402927,-3.176860E-015));
#627=DIRECTION('',(-0.887010833178222,0.461748613235033,8.764877E-016));
#628=DIRECTION('',(0.449475721896298,0.863434828270251,-0.229023738410942));
#629=NEXT_ASSEMBLY_USAGE_OCCURRENCE('CAP A-1/16:2','CAP A-1/16:2','CAP A-1/16:2',#12,#459,'CAP A-1/16:2');
#630=PRODUCT_DEFINITION_SHAPE('CAP A-1/16:2','CAP A-1/16:2',#629);
#631=ITEM_DEFINED_TRANSFORMATION('CAP A-1/16:2','CAP A-1/16:2',#484,#625);
#635=(REPRESENTATION_RELATIONSHIP('CAP A-1/16:2','CAP A-1/16:2',#488,#41)REPRESENTATION_RELATIONSHIP_WITH_TRANSFORMATION(#631)SHAPE_REPRESENTATION_RELATIONSHIP());
#636=CONTEXT_DEPENDENT_SHAPE_REPRESENTATION(#635,#630);
ENDSEC;
END-ISO-10303-21;
