ISO-10303-21;
HEADER;
/****************************************************************
 * Generated by software with PDE/Lib inside                    *
 * PDElib Version v51a, created Thu 12/14/2006                  *
 * International Technegroup Inc. (www.iti-oh.com)              *
 ****************************************************************/
FILE_DESCRIPTION((''),'2;1');
FILE_NAME('\\\\VICISRV2\\am\\Vault,D-CL_VICI\\Tech-Support\\Dimension Fittings\\5 Allg-Dokument\\305076.stp','2008-08-18T14:51:25',('Franzp'),(''),'Autodesk Inventor 2008','Autodesk Inventor 2008','');
FILE_SCHEMA(('AUTOMOTIVE_DESIGN { 1 0 10303 214 1 1 1 1 }'));
ENDSEC;
DATA;
#5=APPLICATION_CONTEXT('automotive design');
#6=APPLICATION_PROTOCOL_DEFINITION('International Standard','automotive_design',2001,#5);
#7=PRODUCT_CONTEXT('',#5,'mechanical');
#8=PRODUCT('305076','305076',$,(#7));
#9=PRODUCT_RELATED_PRODUCT_CATEGORY('part',$,(#8));
#10=PRODUCT_DEFINITION_FORMATION('',$,#8);
#11=PRODUCT_DEFINITION_CONTEXT('part definition',#5,'design');
#12=PRODUCT_DEFINITION('',$,#10,#11);
#18=(NAMED_UNIT(*)PLANE_ANGLE_UNIT()SI_UNIT($,.RADIAN.));
#19=DIMENSIONAL_EXPONENTS(0.0,0.0,0.0,0.0,0.0,0.0,0.0);
#20=PLANE_ANGLE_MEASURE_WITH_UNIT(PLANE_ANGLE_MEASURE(0.017453292500000),#18);
#24=(CONVERSION_BASED_UNIT('DEGREE',#20)NAMED_UNIT(#19)PLANE_ANGLE_UNIT());
#28=(NAMED_UNIT(*)SI_UNIT($,.STERADIAN.)SOLID_ANGLE_UNIT());
#32=(LENGTH_UNIT()NAMED_UNIT(*)SI_UNIT(.MILLI.,.METRE.));
#34=UNCERTAINTY_MEASURE_WITH_UNIT(LENGTH_MEASURE(0.010000000000000),#32,'DISTANCE_ACCURACY_VALUE','');
#36=(GEOMETRIC_REPRESENTATION_CONTEXT(3)GLOBAL_UNCERTAINTY_ASSIGNED_CONTEXT((#34))GLOBAL_UNIT_ASSIGNED_CONTEXT((#24,#28,#32))REPRESENTATION_CONTEXT('None','None'));
#37=AXIS2_PLACEMENT_3D('',#38,#39,#40);
#38=CARTESIAN_POINT('',(0.0,0.0,0.0));
#39=DIRECTION('',(0.0,0.0,1.0));
#40=DIRECTION('',(1.0,0.0,0.0));
#41=SHAPE_REPRESENTATION('',(#37,#351,#639),#36);
#42=PRODUCT_DEFINITION_SHAPE('','',#12);
#43=SHAPE_DEFINITION_REPRESENTATION(#42,#41);
#44=APPLICATION_CONTEXT('automotive design');
#45=APPLICATION_PROTOCOL_DEFINITION('International Standard','automotive_design',2001,#44);
#46=PRODUCT_CONTEXT('',#44,'mechanical');
#47=PRODUCT('313104','313104',$,(#46));
#48=PRODUCT_RELATED_PRODUCT_CATEGORY('part',$,(#47));
#49=PRODUCT_DEFINITION_FORMATION('',$,#47);
#50=PRODUCT_DEFINITION_CONTEXT('part definition',#44,'design');
#51=PRODUCT_DEFINITION('',$,#49,#50);
#57=(NAMED_UNIT(*)PLANE_ANGLE_UNIT()SI_UNIT($,.RADIAN.));
#58=DIMENSIONAL_EXPONENTS(0.0,0.0,0.0,0.0,0.0,0.0,0.0);
#59=PLANE_ANGLE_MEASURE_WITH_UNIT(PLANE_ANGLE_MEASURE(0.017453292500000),#57);
#63=(CONVERSION_BASED_UNIT('DEGREE',#59)NAMED_UNIT(#58)PLANE_ANGLE_UNIT());
#67=(NAMED_UNIT(*)SI_UNIT($,.STERADIAN.)SOLID_ANGLE_UNIT());
#71=(LENGTH_UNIT()NAMED_UNIT(*)SI_UNIT(.MILLI.,.METRE.));
#73=UNCERTAINTY_MEASURE_WITH_UNIT(LENGTH_MEASURE(0.010000000000000),#71,'DISTANCE_ACCURACY_VALUE','');
#75=(GEOMETRIC_REPRESENTATION_CONTEXT(3)GLOBAL_UNCERTAINTY_ASSIGNED_CONTEXT((#73))GLOBAL_UNIT_ASSIGNED_CONTEXT((#63,#67,#71))REPRESENTATION_CONTEXT('None','None'));
#76=AXIS2_PLACEMENT_3D('',#77,#78,#79);
#77=CARTESIAN_POINT('',(0.0,0.0,0.0));
#78=DIRECTION('',(0.0,0.0,1.0));
#79=DIRECTION('',(1.0,0.0,0.0));
#80=SHAPE_REPRESENTATION('',(#76),#75);
#81=PRODUCT_DEFINITION_SHAPE('','',#51);
#82=SHAPE_DEFINITION_REPRESENTATION(#81,#80);
#88=(NAMED_UNIT(*)PLANE_ANGLE_UNIT()SI_UNIT($,.RADIAN.));
#89=DIMENSIONAL_EXPONENTS(0.0,0.0,0.0,0.0,0.0,0.0,0.0);
#90=PLANE_ANGLE_MEASURE_WITH_UNIT(PLANE_ANGLE_MEASURE(0.017453292500000),#88);
#94=(CONVERSION_BASED_UNIT('DEGREE',#90)NAMED_UNIT(#89)PLANE_ANGLE_UNIT());
#98=(NAMED_UNIT(*)SI_UNIT($,.STERADIAN.)SOLID_ANGLE_UNIT());
#102=(LENGTH_UNIT()NAMED_UNIT(*)SI_UNIT(.MILLI.,.METRE.));
#104=UNCERTAINTY_MEASURE_WITH_UNIT(LENGTH_MEASURE(0.000001000000000),#102,'DISTANCE_ACCURACY_VALUE','');
#106=(GEOMETRIC_REPRESENTATION_CONTEXT(3)GLOBAL_UNCERTAINTY_ASSIGNED_CONTEXT((#104))GLOBAL_UNIT_ASSIGNED_CONTEXT((#94,#98,#102))REPRESENTATION_CONTEXT('','3D'));
#107=CARTESIAN_POINT('',(2.032000000000000,0.0,0.0));
#108=DIRECTION('',(-1.0,0.0,0.0));
#109=DIRECTION('',(0.0,1.0,0.0));
#110=AXIS2_PLACEMENT_3D('',#107,#108,#109);
#111=CONICAL_SURFACE('',#110,1.860000000000002,5.621243066439434);
#112=CARTESIAN_POINT('',(4.013200000000031,-1.664999999999999,2.038970E-016));
#113=VERTEX_POINT('',#112);
#114=CARTESIAN_POINT('',(4.013200000000031,7.371885E-016,0.0));
#115=DIRECTION('',(-1.0,0.0,0.0));
#116=DIRECTION('',(0.0,1.0,0.0));
#117=AXIS2_PLACEMENT_3D('',#114,#115,#116);
#118=CIRCLE('',#117,1.665000000000000);
#119=EDGE_CURVE('',#113,#113,#118,.T.);
#120=ORIENTED_EDGE('',*,*,#119,.F.);
#121=EDGE_LOOP('',(#120));
#122=FACE_OUTER_BOUND('',#121,.T.);
#123=CARTESIAN_POINT('',(-3.784034E-016,2.060000000000000,0.0));
#124=VERTEX_POINT('',#123);
#125=CARTESIAN_POINT('',(0.0,0.0,0.0));
#126=DIRECTION('',(1.0,0.0,0.0));
#127=DIRECTION('',(0.0,1.0,0.0));
#128=AXIS2_PLACEMENT_3D('',#125,#126,#127);
#129=CIRCLE('',#128,2.060000000000000);
#130=EDGE_CURVE('',#124,#124,#129,.T.);
#131=ORIENTED_EDGE('',*,*,#130,.F.);
#132=EDGE_LOOP('',(#131));
#133=FACE_BOUND('',#132,.T.);
#134=ADVANCED_FACE('',(#122,#133),#111,.F.);
#135=CARTESIAN_POINT('',(11.494000000000000,2.111344E-015,0.0));
#136=DIRECTION('',(-1.0,-1.836910E-016,0.0));
#137=DIRECTION('',(0.0,-1.0,0.0));
#138=AXIS2_PLACEMENT_3D('',#135,#136,#137);
#139=CONICAL_SURFACE('',#138,4.699999999999998,45.000000000000021);
#140=CARTESIAN_POINT('',(11.303999999999998,4.890000000000001,5.988325E-016));
#141=VERTEX_POINT('',#140);
#142=CARTESIAN_POINT('',(11.303999999999998,2.076443E-015,0.0));
#143=DIRECTION('',(1.0,0.0,0.0));
#144=DIRECTION('',(0.0,-1.0,0.0));
#145=AXIS2_PLACEMENT_3D('',#142,#143,#144);
#146=CIRCLE('',#145,4.889999999999999);
#147=EDGE_CURVE('',#141,#141,#146,.T.);
#148=ORIENTED_EDGE('',*,*,#147,.T.);
#149=EDGE_LOOP('',(#148));
#150=FACE_OUTER_BOUND('',#149,.T.);
#151=CARTESIAN_POINT('',(11.683999999999999,4.510000000000002,-5.522975E-016));
#152=VERTEX_POINT('',#151);
#153=CARTESIAN_POINT('',(11.683999999999999,2.146245E-015,0.0));
#154=DIRECTION('',(-1.0,0.0,0.0));
#155=DIRECTION('',(0.0,-1.0,0.0));
#156=AXIS2_PLACEMENT_3D('',#153,#154,#155);
#157=CIRCLE('',#156,4.509999999999999);
#158=EDGE_CURVE('',#152,#152,#157,.T.);
#159=ORIENTED_EDGE('',*,*,#158,.T.);
#160=EDGE_LOOP('',(#159));
#161=FACE_BOUND('',#160,.T.);
#162=ADVANCED_FACE('',(#150,#161),#139,.T.);
#163=CARTESIAN_POINT('',(5.842000000000001,1.073123E-015,0.0));
#164=DIRECTION('',(1.0,1.836910E-016,0.0));
#165=DIRECTION('',(0.0,1.0,0.0));
#166=AXIS2_PLACEMENT_3D('',#163,#164,#165);
#167=CYLINDRICAL_SURFACE('',#166,4.889999999999999);
#168=CARTESIAN_POINT('',(0.380000000000000,4.889999999999999,-5.988325E-016));
#169=VERTEX_POINT('',#168);
#170=CARTESIAN_POINT('',(0.380000000000000,6.980256E-017,0.0));
#171=DIRECTION('',(-1.0,0.0,0.0));
#172=DIRECTION('',(0.0,-1.0,0.0));
#173=AXIS2_PLACEMENT_3D('',#170,#171,#172);
#174=CIRCLE('',#173,4.889999999999999);
#175=EDGE_CURVE('',#169,#169,#174,.T.);
#176=ORIENTED_EDGE('',*,*,#175,.F.);
#177=EDGE_LOOP('',(#176));
#178=FACE_OUTER_BOUND('',#177,.T.);
#179=ORIENTED_EDGE('',*,*,#147,.F.);
#180=EDGE_LOOP('',(#179));
#181=FACE_BOUND('',#180,.T.);
#182=ADVANCED_FACE('',(#178,#181),#167,.T.);
#183=CARTESIAN_POINT('',(11.683999999999999,4.032500000000002,0.0));
#184=DIRECTION('',(1.0,0.0,0.0));
#185=DIRECTION('',(0.0,0.0,-1.0));
#186=AXIS2_PLACEMENT_3D('',#183,#184,#185);
#187=PLANE('',#186);
#188=ORIENTED_EDGE('',*,*,#158,.F.);
#189=EDGE_LOOP('',(#188));
#190=FACE_OUTER_BOUND('',#189,.T.);
#191=CARTESIAN_POINT('',(11.683999999999999,3.175000000000003,0.0));
#192=VERTEX_POINT('',#191);
#193=CARTESIAN_POINT('',(11.683999999999999,2.146245E-015,0.0));
#194=DIRECTION('',(1.0,0.0,0.0));
#195=DIRECTION('',(0.0,1.0,0.0));
#196=AXIS2_PLACEMENT_3D('',#193,#194,#195);
#197=CIRCLE('',#196,3.175000000000001);
#198=EDGE_CURVE('',#192,#192,#197,.T.);
#199=ORIENTED_EDGE('',*,*,#198,.F.);
#200=EDGE_LOOP('',(#199));
#201=FACE_BOUND('',#200,.T.);
#202=ADVANCED_FACE('',(#190,#201),#187,.T.);
#203=CARTESIAN_POINT('',(0.190000000000000,3.490128E-017,0.0));
#204=DIRECTION('',(1.0,1.836910E-016,0.0));
#205=DIRECTION('',(0.0,-1.0,0.0));
#206=AXIS2_PLACEMENT_3D('',#203,#204,#205);
#207=CONICAL_SURFACE('',#206,4.699999999999999,44.999999999999893);
#208=CARTESIAN_POINT('',(-4.121126E-016,4.510000000000000,5.522975E-016));
#209=VERTEX_POINT('',#208);
#210=CARTESIAN_POINT('',(4.163336E-016,1.078521E-031,0.0));
#211=DIRECTION('',(1.0,0.0,0.0));
#212=DIRECTION('',(0.0,-1.0,0.0));
#213=AXIS2_PLACEMENT_3D('',#210,#211,#212);
#214=CIRCLE('',#213,4.510000000000000);
#215=EDGE_CURVE('',#209,#209,#214,.T.);
#216=ORIENTED_EDGE('',*,*,#215,.T.);
#217=EDGE_LOOP('',(#216));
#218=FACE_OUTER_BOUND('',#217,.T.);
#219=ORIENTED_EDGE('',*,*,#175,.T.);
#220=EDGE_LOOP('',(#219));
#221=FACE_BOUND('',#220,.T.);
#222=ADVANCED_FACE('',(#218,#221),#207,.T.);
#223=CARTESIAN_POINT('',(0.0,2.445000000000000,0.0));
#224=DIRECTION('',(-1.0,0.0,0.0));
#225=DIRECTION('',(0.0,0.0,1.0));
#226=AXIS2_PLACEMENT_3D('',#223,#224,#225);
#227=PLANE('',#226);
#228=ORIENTED_EDGE('',*,*,#215,.F.);
#229=EDGE_LOOP('',(#228));
#230=FACE_OUTER_BOUND('',#229,.T.);
#231=ORIENTED_EDGE('',*,*,#130,.T.);
#232=EDGE_LOOP('',(#231));
#233=FACE_BOUND('',#232,.T.);
#234=ADVANCED_FACE('',(#230,#233),#227,.T.);
#235=CARTESIAN_POINT('',(21.335999999999999,-1.664999999999996,-2.038970E-016));
#236=CARTESIAN_POINT('',(4.013200000000032,-1.664999999999999,-2.038970E-016));
#237=CARTESIAN_POINT('',(21.335999999999999,-1.664999999999995,-1.665000000000000));
#238=CARTESIAN_POINT('',(4.013200000000032,-1.664999999999999,-1.665000000000000));
#239=CARTESIAN_POINT('',(21.335999999999999,4.123127E-015,-1.665000000000000));
#240=CARTESIAN_POINT('',(4.013200000000032,9.410855E-016,-1.665000000000000));
#241=CARTESIAN_POINT('',(21.335999999999999,1.665000000000004,-1.664999999999999));
#242=CARTESIAN_POINT('',(4.013200000000032,1.665000000000000,-1.664999999999999));
#243=CARTESIAN_POINT('',(21.335999999999999,1.665000000000004,2.038970E-016));
#244=CARTESIAN_POINT('',(4.013200000000032,1.665000000000001,2.038970E-016));
#245=CARTESIAN_POINT('',(21.335999999999999,1.665000000000003,1.665000000000000));
#246=CARTESIAN_POINT('',(4.013200000000032,1.665000000000000,1.665000000000000));
#247=CARTESIAN_POINT('',(21.335999999999999,3.715333E-015,1.665000000000000));
#248=CARTESIAN_POINT('',(4.013200000000032,5.332916E-016,1.665000000000000));
#249=CARTESIAN_POINT('',(21.335999999999999,-1.664999999999996,1.664999999999999));
#250=CARTESIAN_POINT('',(4.013200000000032,-1.664999999999999,1.664999999999999));
#251=CARTESIAN_POINT('',(21.335999999999999,-1.664999999999996,-2.038970E-016));
#252=CARTESIAN_POINT('',(4.013200000000032,-1.664999999999999,-2.038970E-016));
#260=(BOUNDED_SURFACE()B_SPLINE_SURFACE(1,2,((#235,#237,#239,#241,#243,#245,#247,#249,#251),(#236,#238,#240,#242,#244,#246,#248,#250,#252)),.UNSPECIFIED.,.F.,.T.,.U.)B_SPLINE_SURFACE_WITH_KNOTS((2,2),(3,2,2,2,3),(-15.271345892117958,-4.867261808033895),(0.0,2.615375884113503,5.230751768227005,7.846127652340509,10.461503536454011),.UNSPECIFIED.)GEOMETRIC_REPRESENTATION_ITEM()RATIONAL_B_SPLINE_SURFACE(((1.0,0.707106781186548,1.0,0.707106781186548,1.0,0.707106781186548,1.0,0.707106781186548,1.0),(1.0,0.707106781186548,1.0,0.707106781186548,1.0,0.707106781186548,1.0,0.707106781186548,1.0)))REPRESENTATION_ITEM('')SURFACE());
#261=ORIENTED_EDGE('',*,*,#119,.T.);
#262=EDGE_LOOP('',(#261));
#263=FACE_OUTER_BOUND('',#262,.T.);
#264=CARTESIAN_POINT('',(21.335999999999999,1.665000000000004,0.0));
#265=VERTEX_POINT('',#264);
#266=CARTESIAN_POINT('',(21.335999999999999,3.919230E-015,0.0));
#267=DIRECTION('',(-1.0,0.0,0.0));
#268=DIRECTION('',(0.0,1.0,0.0));
#269=AXIS2_PLACEMENT_3D('',#266,#267,#268);
#270=CIRCLE('',#269,1.665000000000000);
#271=EDGE_CURVE('',#265,#265,#270,.T.);
#272=ORIENTED_EDGE('',*,*,#271,.F.);
#273=EDGE_LOOP('',(#272));
#274=FACE_BOUND('',#273,.T.);
#275=ADVANCED_FACE('',(#263,#274),#260,.F.);
#276=CARTESIAN_POINT('',(21.085999999999999,3.873307E-015,0.0));
#277=DIRECTION('',(-1.0,-1.836910E-016,0.0));
#278=DIRECTION('',(0.0,-1.0,0.0));
#279=AXIS2_PLACEMENT_3D('',#276,#277,#278);
#280=CONICAL_SURFACE('',#279,2.925000000000000,45.000000000000149);
#281=CARTESIAN_POINT('',(20.836000000000002,3.175000000000004,3.888125E-016));
#282=VERTEX_POINT('',#281);
#283=CARTESIAN_POINT('',(20.836000000000002,3.827385E-015,0.0));
#284=DIRECTION('',(1.0,0.0,0.0));
#285=DIRECTION('',(0.0,-1.0,0.0));
#286=AXIS2_PLACEMENT_3D('',#283,#284,#285);
#287=CIRCLE('',#286,3.175000000000001);
#288=EDGE_CURVE('',#282,#282,#287,.T.);
#289=ORIENTED_EDGE('',*,*,#288,.T.);
#290=EDGE_LOOP('',(#289));
#291=FACE_OUTER_BOUND('',#290,.T.);
#292=CARTESIAN_POINT('',(21.335999999999999,2.675000000000004,-3.275822E-016));
#293=VERTEX_POINT('',#292);
#294=CARTESIAN_POINT('',(21.335999999999999,3.919230E-015,0.0));
#295=DIRECTION('',(-1.0,0.0,0.0));
#296=DIRECTION('',(0.0,-1.0,0.0));
#297=AXIS2_PLACEMENT_3D('',#294,#295,#296);
#298=CIRCLE('',#297,2.675000000000000);
#299=EDGE_CURVE('',#293,#293,#298,.T.);
#300=ORIENTED_EDGE('',*,*,#299,.T.);
#301=EDGE_LOOP('',(#300));
#302=FACE_BOUND('',#301,.T.);
#303=ADVANCED_FACE('',(#291,#302),#280,.T.);
#304=CARTESIAN_POINT('',(16.509999999999998,3.032738E-015,0.0));
#305=DIRECTION('',(1.0,1.836910E-016,0.0));
#306=DIRECTION('',(0.0,1.0,0.0));
#307=AXIS2_PLACEMENT_3D('',#304,#305,#306);
#308=CYLINDRICAL_SURFACE('',#307,3.175000000000001);
#309=ORIENTED_EDGE('',*,*,#198,.T.);
#310=EDGE_LOOP('',(#309));
#311=FACE_OUTER_BOUND('',#310,.T.);
#312=ORIENTED_EDGE('',*,*,#288,.F.);
#313=EDGE_LOOP('',(#312));
#314=FACE_BOUND('',#313,.T.);
#315=ADVANCED_FACE('',(#311,#314),#308,.T.);
#316=CARTESIAN_POINT('',(21.335999999999999,1.587500000000004,0.0));
#317=DIRECTION('',(1.0,0.0,0.0));
#318=DIRECTION('',(0.0,0.0,-1.0));
#319=AXIS2_PLACEMENT_3D('',#316,#317,#318);
#320=PLANE('',#319);
#321=ORIENTED_EDGE('',*,*,#299,.F.);
#322=EDGE_LOOP('',(#321));
#323=FACE_OUTER_BOUND('',#322,.T.);
#324=ORIENTED_EDGE('',*,*,#271,.T.);
#325=EDGE_LOOP('',(#324));
#326=FACE_BOUND('',#325,.T.);
#327=ADVANCED_FACE('',(#323,#326),#320,.T.);
#328=CLOSED_SHELL('',(#134,#162,#182,#202,#222,#234,#275,#303,#315,#327));
#329=MANIFOLD_SOLID_BREP('',#328);
#330=COLOUR_RGB('',0.831372618675232,0.811764776706696,0.0);
#331=DRAUGHTING_PRE_DEFINED_CURVE_FONT('continuous');
#332=CURVE_STYLE('',#331,POSITIVE_LENGTH_MEASURE(0.100000000000000),#330);
#333=FILL_AREA_STYLE_COLOUR('',#330);
#334=FILL_AREA_STYLE('',(#333));
#335=SURFACE_STYLE_FILL_AREA(#334);
#336=SURFACE_SIDE_STYLE('',(#335));
#337=SURFACE_STYLE_USAGE(.BOTH.,#336);
#338=PRESENTATION_STYLE_ASSIGNMENT((#332,#337));
#339=STYLED_ITEM('',(#338),#182);
#340=MECHANICAL_DESIGN_GEOMETRIC_PRESENTATION_REPRESENTATION('',(#339,#348,#636),#106);
#341=COLOUR_RGB('Gelb (gleichmig)',0.831372976303101,0.811765015125275,0.0);
#342=FILL_AREA_STYLE_COLOUR('Gelb (gleichmig)',#341);
#343=FILL_AREA_STYLE('Gelb (gleichmig)',(#342));
#344=SURFACE_STYLE_FILL_AREA(#343);
#345=SURFACE_SIDE_STYLE('Gelb (gleichmig)',(#344));
#346=SURFACE_STYLE_USAGE(.BOTH.,#345);
#347=PRESENTATION_STYLE_ASSIGNMENT((#346));
#348=STYLED_ITEM('',(#347),#329);
#349=ADVANCED_BREP_SHAPE_REPRESENTATION('ABSR',(#329),#75);
#350=SHAPE_REPRESENTATION_RELATIONSHIP('SRR','None',#349,#80);
#351=AXIS2_PLACEMENT_3D('',#352,#353,#354);
#352=CARTESIAN_POINT('',(0.0,0.0,0.0));
#353=DIRECTION('',(0.0,0.0,1.0));
#354=DIRECTION('',(1.0,0.0,0.0));
#355=NEXT_ASSEMBLY_USAGE_OCCURRENCE('CFL-2Y-S Nut','CFL-2Y-S Nut','CFL-2Y-S Nut',#12,#51,'CFL-2Y-S Nut');
#356=PRODUCT_DEFINITION_SHAPE('CFL-2Y-S Nut','CFL-2Y-S Nut',#355);
#357=ITEM_DEFINED_TRANSFORMATION('CFL-2Y-S Nut','CFL-2Y-S Nut',#76,#351);
#361=(REPRESENTATION_RELATIONSHIP('CFL-2Y-S Nut','CFL-2Y-S Nut',#80,#41)REPRESENTATION_RELATIONSHIP_WITH_TRANSFORMATION(#357)SHAPE_REPRESENTATION_RELATIONSHIP());
#362=CONTEXT_DEPENDENT_SHAPE_REPRESENTATION(#361,#356);
#363=APPLICATION_CONTEXT('automotive design');
#364=APPLICATION_PROTOCOL_DEFINITION('International Standard','automotive_design',2001,#363);
#365=PRODUCT_CONTEXT('',#363,'mechanical');
#366=PRODUCT('310193','310193',$,(#365));
#367=PRODUCT_RELATED_PRODUCT_CATEGORY('part',$,(#366));
#368=PRODUCT_DEFINITION_FORMATION('',$,#366);
#369=PRODUCT_DEFINITION_CONTEXT('part definition',#363,'design');
#370=PRODUCT_DEFINITION('',$,#368,#369);
#376=(NAMED_UNIT(*)PLANE_ANGLE_UNIT()SI_UNIT($,.RADIAN.));
#377=DIMENSIONAL_EXPONENTS(0.0,0.0,0.0,0.0,0.0,0.0,0.0);
#378=PLANE_ANGLE_MEASURE_WITH_UNIT(PLANE_ANGLE_MEASURE(0.017453292500000),#376);
#382=(CONVERSION_BASED_UNIT('DEGREE',#378)NAMED_UNIT(#377)PLANE_ANGLE_UNIT());
#386=(NAMED_UNIT(*)SI_UNIT($,.STERADIAN.)SOLID_ANGLE_UNIT());
#390=(LENGTH_UNIT()NAMED_UNIT(*)SI_UNIT(.MILLI.,.METRE.));
#392=UNCERTAINTY_MEASURE_WITH_UNIT(LENGTH_MEASURE(0.010000000000000),#390,'DISTANCE_ACCURACY_VALUE','');
#394=(GEOMETRIC_REPRESENTATION_CONTEXT(3)GLOBAL_UNCERTAINTY_ASSIGNED_CONTEXT((#392))GLOBAL_UNIT_ASSIGNED_CONTEXT((#382,#386,#390))REPRESENTATION_CONTEXT('None','None'));
#395=AXIS2_PLACEMENT_3D('',#396,#397,#398);
#396=CARTESIAN_POINT('',(0.0,0.0,0.0));
#397=DIRECTION('',(0.0,0.0,1.0));
#398=DIRECTION('',(1.0,0.0,0.0));
#399=SHAPE_REPRESENTATION('',(#395),#394);
#400=PRODUCT_DEFINITION_SHAPE('','',#370);
#401=SHAPE_DEFINITION_REPRESENTATION(#400,#399);
#407=(NAMED_UNIT(*)PLANE_ANGLE_UNIT()SI_UNIT($,.RADIAN.));
#408=DIMENSIONAL_EXPONENTS(0.0,0.0,0.0,0.0,0.0,0.0,0.0);
#409=PLANE_ANGLE_MEASURE_WITH_UNIT(PLANE_ANGLE_MEASURE(0.017453292500000),#407);
#413=(CONVERSION_BASED_UNIT('DEGREE',#409)NAMED_UNIT(#408)PLANE_ANGLE_UNIT());
#417=(NAMED_UNIT(*)SI_UNIT($,.STERADIAN.)SOLID_ANGLE_UNIT());
#421=(LENGTH_UNIT()NAMED_UNIT(*)SI_UNIT(.MILLI.,.METRE.));
#423=UNCERTAINTY_MEASURE_WITH_UNIT(LENGTH_MEASURE(0.000001000000000),#421,'DISTANCE_ACCURACY_VALUE','');
#425=(GEOMETRIC_REPRESENTATION_CONTEXT(3)GLOBAL_UNCERTAINTY_ASSIGNED_CONTEXT((#423))GLOBAL_UNIT_ASSIGNED_CONTEXT((#413,#417,#421))REPRESENTATION_CONTEXT('','3D'));
#426=CARTESIAN_POINT('',(3.429000000000000,-1.625600000000000,-1.990720E-016));
#427=CARTESIAN_POINT('',(-8.881784E-016,-1.625600000000000,-1.990720E-016));
#428=CARTESIAN_POINT('',(3.429000000000000,-1.625599999999999,-1.625600000000000));
#429=CARTESIAN_POINT('',(-8.881784E-016,-1.625600000000000,-1.625600000000000));
#430=CARTESIAN_POINT('',(3.429000000000000,8.289483E-016,-1.625600000000000));
#431=CARTESIAN_POINT('',(-8.881784E-016,1.990720E-016,-1.625600000000000));
#432=CARTESIAN_POINT('',(3.429000000000000,1.625600000000001,-1.625600000000000));
#433=CARTESIAN_POINT('',(-8.881784E-016,1.625600000000000,-1.625600000000000));
#434=CARTESIAN_POINT('',(3.429000000000000,1.625600000000001,1.990720E-016));
#435=CARTESIAN_POINT('',(-8.881784E-016,1.625600000000000,1.990720E-016));
#436=CARTESIAN_POINT('',(3.429000000000000,1.625600000000000,1.625600000000000));
#437=CARTESIAN_POINT('',(-8.881784E-016,1.625600000000000,1.625600000000000));
#438=CARTESIAN_POINT('',(3.429000000000000,4.308043E-016,1.625600000000000));
#439=CARTESIAN_POINT('',(-8.881784E-016,-1.990720E-016,1.625600000000000));
#440=CARTESIAN_POINT('',(3.429000000000000,-1.625599999999999,1.625600000000000));
#441=CARTESIAN_POINT('',(-8.881784E-016,-1.625600000000000,1.625600000000000));
#442=CARTESIAN_POINT('',(3.429000000000000,-1.625600000000000,-1.990720E-016));
#443=CARTESIAN_POINT('',(-8.881784E-016,-1.625600000000000,-1.990720E-016));
#451=(BOUNDED_SURFACE()B_SPLINE_SURFACE(1,2,((#426,#428,#430,#432,#434,#436,#438,#440,#442),(#427,#429,#431,#433,#435,#437,#439,#441,#443)),.UNSPECIFIED.,.F.,.T.,.U.)B_SPLINE_SURFACE_WITH_KNOTS((2,2),(3,2,2,2,3),(-4.996947310296058,-2.887572310296057),(0.0,2.553486508837784,5.106973017675569,7.660459526513352,10.213946035351137),.UNSPECIFIED.)GEOMETRIC_REPRESENTATION_ITEM()RATIONAL_B_SPLINE_SURFACE(((1.0,0.707106781186548,1.0,0.707106781186548,1.0,0.707106781186548,1.0,0.707106781186548,1.0),(1.0,0.707106781186548,1.0,0.707106781186548,1.0,0.707106781186548,1.0,0.707106781186548,1.0)))REPRESENTATION_ITEM('')SURFACE());
#452=CARTESIAN_POINT('',(2.986080E-016,-1.625600000000000,-1.990720E-016));
#453=VERTEX_POINT('',#452);
#454=CARTESIAN_POINT('',(0.0,-1.232595E-031,0.0));
#455=DIRECTION('',(1.0,0.0,0.0));
#456=DIRECTION('',(0.0,1.0,0.0));
#457=AXIS2_PLACEMENT_3D('',#454,#455,#456);
#458=CIRCLE('',#457,1.625600000000000);
#459=EDGE_CURVE('',#453,#453,#458,.T.);
#460=ORIENTED_EDGE('',*,*,#459,.F.);
#461=EDGE_LOOP('',(#460));
#462=FACE_OUTER_BOUND('',#461,.T.);
#463=CARTESIAN_POINT('',(3.428999999999999,1.625600000000001,0.0));
#464=VERTEX_POINT('',#463);
#465=CARTESIAN_POINT('',(3.429000000000000,6.298763E-016,0.0));
#466=DIRECTION('',(-1.0,0.0,0.0));
#467=DIRECTION('',(0.0,1.0,0.0));
#468=AXIS2_PLACEMENT_3D('',#465,#466,#467);
#469=CIRCLE('',#468,1.625600000000000);
#470=EDGE_CURVE('',#464,#464,#469,.T.);
#471=ORIENTED_EDGE('',*,*,#470,.F.);
#472=EDGE_LOOP('',(#471));
#473=FACE_BOUND('',#472,.T.);
#474=ADVANCED_FACE('',(#462,#473),#451,.F.);
#475=CARTESIAN_POINT('',(0.254000000000000,4.665750E-017,0.0));
#476=DIRECTION('',(1.0,1.836910E-016,0.0));
#477=DIRECTION('',(0.0,0.0,-1.0));
#478=AXIS2_PLACEMENT_3D('',#475,#476,#477);
#479=TOROIDAL_SURFACE('',#478,2.349500000000000,0.254000000000000);
#480=CARTESIAN_POINT('',(-1.887206E-016,2.349500000000000,0.0));
#481=VERTEX_POINT('',#480);
#482=CARTESIAN_POINT('',(2.428613E-016,5.392604E-032,0.0));
#483=DIRECTION('',(1.0,0.0,0.0));
#484=DIRECTION('',(0.0,-1.0,0.0));
#485=AXIS2_PLACEMENT_3D('',#482,#483,#484);
#486=CIRCLE('',#485,2.349500000000000);
#487=EDGE_CURVE('',#481,#481,#486,.T.);
#488=ORIENTED_EDGE('',*,*,#487,.T.);
#489=EDGE_LOOP('',(#488));
#490=FACE_OUTER_BOUND('',#489,.T.);
#491=CARTESIAN_POINT('',(0.254000000000000,2.603500000000000,-6.376525E-016));
#492=VERTEX_POINT('',#491);
#493=CARTESIAN_POINT('',(0.254000000000000,4.665750E-017,0.0));
#494=DIRECTION('',(-1.0,0.0,0.0));
#495=DIRECTION('',(0.0,-1.0,0.0));
#496=AXIS2_PLACEMENT_3D('',#493,#494,#495);
#497=CIRCLE('',#496,2.603500000000000);
#498=EDGE_CURVE('',#492,#492,#497,.T.);
#499=ORIENTED_EDGE('',*,*,#498,.T.);
#500=EDGE_LOOP('',(#499));
#501=FACE_BOUND('',#500,.T.);
#502=ADVANCED_FACE('',(#490,#501),#479,.T.);
#503=CARTESIAN_POINT('',(0.436850000000000,8.024539E-017,0.0));
#504=DIRECTION('',(1.0,1.836910E-016,0.0));
#505=DIRECTION('',(0.0,1.0,0.0));
#506=AXIS2_PLACEMENT_3D('',#503,#504,#505);
#507=CYLINDRICAL_SURFACE('',#506,2.603500000000000);
#508=CARTESIAN_POINT('',(0.873699999999999,2.603500000000000,0.0));
#509=VERTEX_POINT('',#508);
#510=CARTESIAN_POINT('',(0.873700000000000,1.604908E-016,0.0));
#511=DIRECTION('',(1.0,0.0,0.0));
#512=DIRECTION('',(0.0,1.0,0.0));
#513=AXIS2_PLACEMENT_3D('',#510,#511,#512);
#514=CIRCLE('',#513,2.603500000000000);
#515=EDGE_CURVE('',#509,#509,#514,.T.);
#516=ORIENTED_EDGE('',*,*,#515,.F.);
#517=EDGE_LOOP('',(#516));
#518=FACE_OUTER_BOUND('',#517,.T.);
#519=ORIENTED_EDGE('',*,*,#498,.F.);
#520=EDGE_LOOP('',(#519));
#521=FACE_BOUND('',#520,.T.);
#522=ADVANCED_FACE('',(#518,#521),#507,.T.);
#523=CARTESIAN_POINT('',(0.0,1.301750000000000,0.0));
#524=DIRECTION('',(-1.0,0.0,0.0));
#525=DIRECTION('',(0.0,0.0,1.0));
#526=AXIS2_PLACEMENT_3D('',#523,#524,#525);
#527=PLANE('',#526);
#528=ORIENTED_EDGE('',*,*,#487,.F.);
#529=EDGE_LOOP('',(#528));
#530=FACE_OUTER_BOUND('',#529,.T.);
#531=ORIENTED_EDGE('',*,*,#459,.T.);
#532=EDGE_LOOP('',(#531));
#533=FACE_BOUND('',#532,.T.);
#534=ADVANCED_FACE('',(#530,#533),#527,.T.);
#535=CARTESIAN_POINT('',(3.175000000000000,5.832188E-016,0.0));
#536=DIRECTION('',(1.0,1.836910E-016,0.0));
#537=DIRECTION('',(0.0,0.0,-1.0));
#538=AXIS2_PLACEMENT_3D('',#535,#536,#537);
#539=TOROIDAL_SURFACE('',#538,2.349500000000000,0.254000000000000);
#540=CARTESIAN_POINT('',(3.174999999999999,2.603500000000001,0.0));
#541=VERTEX_POINT('',#540);
#542=CARTESIAN_POINT('',(3.175000000000000,5.832188E-016,0.0));
#543=DIRECTION('',(1.0,0.0,0.0));
#544=DIRECTION('',(0.0,-1.0,0.0));
#545=AXIS2_PLACEMENT_3D('',#542,#543,#544);
#546=CIRCLE('',#545,2.603500000000000);
#547=EDGE_CURVE('',#541,#541,#546,.T.);
#548=ORIENTED_EDGE('',*,*,#547,.T.);
#549=EDGE_LOOP('',(#548));
#550=FACE_OUTER_BOUND('',#549,.T.);
#551=CARTESIAN_POINT('',(3.428999999999999,2.349500000000001,-5.754425E-016));
#552=VERTEX_POINT('',#551);
#553=CARTESIAN_POINT('',(3.429000000000000,6.298763E-016,0.0));
#554=DIRECTION('',(-1.0,0.0,0.0));
#555=DIRECTION('',(0.0,-1.0,0.0));
#556=AXIS2_PLACEMENT_3D('',#553,#554,#555);
#557=CIRCLE('',#556,2.349500000000000);
#558=EDGE_CURVE('',#552,#552,#557,.T.);
#559=ORIENTED_EDGE('',*,*,#558,.T.);
#560=EDGE_LOOP('',(#559));
#561=FACE_BOUND('',#560,.T.);
#562=ADVANCED_FACE('',(#550,#561),#539,.T.);
#563=CARTESIAN_POINT('',(3.004850000000001,5.519638E-016,0.0));
#564=DIRECTION('',(1.0,1.836910E-016,0.0));
#565=DIRECTION('',(0.0,1.0,0.0));
#566=AXIS2_PLACEMENT_3D('',#563,#564,#565);
#567=CYLINDRICAL_SURFACE('',#566,2.603500000000000);
#568=CARTESIAN_POINT('',(2.580700000000000,2.603500000000000,0.0));
#569=VERTEX_POINT('',#568);
#570=CARTESIAN_POINT('',(2.580700000000000,4.740512E-016,0.0));
#571=DIRECTION('',(1.0,0.0,0.0));
#572=DIRECTION('',(0.0,1.0,0.0));
#573=AXIS2_PLACEMENT_3D('',#570,#571,#572);
#574=CIRCLE('',#573,2.603500000000000);
#575=EDGE_CURVE('',#569,#569,#574,.T.);
#576=ORIENTED_EDGE('',*,*,#575,.T.);
#577=EDGE_LOOP('',(#576));
#578=FACE_OUTER_BOUND('',#577,.T.);
#579=ORIENTED_EDGE('',*,*,#547,.F.);
#580=EDGE_LOOP('',(#579));
#581=FACE_BOUND('',#580,.T.);
#582=ADVANCED_FACE('',(#578,#581),#567,.T.);
#583=CARTESIAN_POINT('',(3.429000000000000,1.301750000000001,0.0));
#584=DIRECTION('',(1.0,0.0,0.0));
#585=DIRECTION('',(0.0,0.0,-1.0));
#586=AXIS2_PLACEMENT_3D('',#583,#584,#585);
#587=PLANE('',#586);
#588=ORIENTED_EDGE('',*,*,#558,.F.);
#589=EDGE_LOOP('',(#588));
#590=FACE_OUTER_BOUND('',#589,.T.);
#591=ORIENTED_EDGE('',*,*,#470,.T.);
#592=EDGE_LOOP('',(#591));
#593=FACE_BOUND('',#592,.T.);
#594=ADVANCED_FACE('',(#590,#593),#587,.T.);
#595=CARTESIAN_POINT('',(1.300449999999999,2.388809E-016,0.0));
#596=DIRECTION('',(-1.0,-1.836910E-016,0.0));
#597=DIRECTION('',(0.0,1.0,0.0));
#598=AXIS2_PLACEMENT_3D('',#595,#596,#597);
#599=CONICAL_SURFACE('',#598,2.176750000000000,45.000000000000007);
#600=CARTESIAN_POINT('',(1.727199999999999,1.750000000000000,0.0));
#601=VERTEX_POINT('',#600);
#602=CARTESIAN_POINT('',(1.727200000000000,3.172710E-016,0.0));
#603=DIRECTION('',(1.0,0.0,0.0));
#604=DIRECTION('',(0.0,1.0,0.0));
#605=AXIS2_PLACEMENT_3D('',#602,#603,#604);
#606=CIRCLE('',#605,1.750000000000000);
#607=EDGE_CURVE('',#601,#601,#606,.T.);
#608=ORIENTED_EDGE('',*,*,#607,.F.);
#609=EDGE_LOOP('',(#608));
#610=FACE_OUTER_BOUND('',#609,.T.);
#611=ORIENTED_EDGE('',*,*,#515,.T.);
#612=EDGE_LOOP('',(#611));
#613=FACE_BOUND('',#612,.T.);
#614=ADVANCED_FACE('',(#610,#613),#599,.T.);
#615=CARTESIAN_POINT('',(2.153950000000000,3.956611E-016,0.0));
#616=DIRECTION('',(1.0,1.836910E-016,0.0));
#617=DIRECTION('',(0.0,1.0,0.0));
#618=AXIS2_PLACEMENT_3D('',#615,#616,#617);
#619=CONICAL_SURFACE('',#618,2.176750000000000,44.999999999999979);
#620=ORIENTED_EDGE('',*,*,#575,.F.);
#621=EDGE_LOOP('',(#620));
#622=FACE_OUTER_BOUND('',#621,.T.);
#623=ORIENTED_EDGE('',*,*,#607,.T.);
#624=EDGE_LOOP('',(#623));
#625=FACE_BOUND('',#624,.T.);
#626=ADVANCED_FACE('',(#622,#625),#619,.T.);
#627=CLOSED_SHELL('',(#474,#502,#522,#534,#562,#582,#594,#614,#626));
#628=MANIFOLD_SOLID_BREP('',#627);
#629=DRAUGHTING_PRE_DEFINED_COLOUR('white');
#630=FILL_AREA_STYLE_COLOUR('Plastik (wei)',#629);
#631=FILL_AREA_STYLE('Plastik (wei)',(#630));
#632=SURFACE_STYLE_FILL_AREA(#631);
#633=SURFACE_SIDE_STYLE('Plastik (wei)',(#632));
#634=SURFACE_STYLE_USAGE(.BOTH.,#633);
#635=PRESENTATION_STYLE_ASSIGNMENT((#634));
#636=STYLED_ITEM('',(#635),#628);
#637=ADVANCED_BREP_SHAPE_REPRESENTATION('ABSR',(#628),#394);
#638=SHAPE_REPRESENTATION_RELATIONSHIP('SRR','None',#637,#399);
#639=AXIS2_PLACEMENT_3D('',#640,#641,#642);
#640=CARTESIAN_POINT('',(22.335999999999999,4.102921E-015,-4.949920E-031));
#641=DIRECTION('',(1.829542E-016,-0.995989049055458,0.089475215348191));
#642=DIRECTION('',(1.0,1.672552E-016,-1.829542E-016));
#643=NEXT_ASSEMBLY_USAGE_OCCURRENCE('CFL-CB2KF-S Ferrule','CFL-CB2KF-S Ferrule','CFL-CB2KF-S Ferrule',#12,#370,'CFL-CB2KF-S Ferrule');
#644=PRODUCT_DEFINITION_SHAPE('CFL-CB2KF-S Ferrule','CFL-CB2KF-S Ferrule',#643);
#645=ITEM_DEFINED_TRANSFORMATION('CFL-CB2KF-S Ferrule','CFL-CB2KF-S Ferrule',#395,#639);
#649=(REPRESENTATION_RELATIONSHIP('CFL-CB2KF-S Ferrule','CFL-CB2KF-S Ferrule',#399,#41)REPRESENTATION_RELATIONSHIP_WITH_TRANSFORMATION(#645)SHAPE_REPRESENTATION_RELATIONSHIP());
#650=CONTEXT_DEPENDENT_SHAPE_REPRESENTATION(#649,#644);
ENDSEC;
END-ISO-10303-21;
