ISO-10303-21;
HEADER;
/* Generated by software containing ST-Developer
 * from STEP Tools, Inc. (www.steptools.com) 
 */

FILE_DESCRIPTION(
/* description */ ('Pipe adapter, male 1/4-28 to male NPT'),
/* implementation_level */ '2;1');

FILE_NAME(
/* name */ 
'C:\\BC-WorkSpace\\FRANZP\\M-Vicisrv126,D-CL_VICI\\Tech-Support\\Dimen
sion Fittings\\8 CAD-Format\\312785-CEPA2PK Pipe adapter male to male 
NPT.stp',
/* time_stamp */ '2016-05-11T10:31:00+02:00',
/* author */ ('Franzp'),
/* organization */ (''),
/* preprocessor_version */ 'ST-DEVELOPER v15.6',
/* originating_system */ 'Autodesk Inventor 2015',
/* authorisation */ '');

FILE_SCHEMA (('AUTOMOTIVE_DESIGN { 1 0 10303 214 3 1 1 }'));
ENDSEC;

DATA;
#10=MECHANICAL_DESIGN_GEOMETRIC_PRESENTATION_REPRESENTATION('',(#13),#485);
#11=SHAPE_REPRESENTATION_RELATIONSHIP('SRR','None',#494,#12);
#12=ADVANCED_BREP_SHAPE_REPRESENTATION($,(#14),#484);
#13=STYLED_ITEM('',(#503),#14);
#14=MANIFOLD_SOLID_BREP('Volumenk\X\F6rper1',#280);
#15=CONICAL_SURFACE('',#301,4.3815,45.);
#16=CONICAL_SURFACE('',#311,2.8702,45.);
#17=LINE('',#414,#33);
#18=LINE('',#416,#34);
#19=LINE('',#418,#35);
#20=LINE('',#419,#36);
#21=LINE('',#423,#37);
#22=LINE('',#425,#38);
#23=LINE('',#427,#39);
#24=LINE('',#428,#40);
#25=LINE('',#432,#41);
#26=LINE('',#434,#42);
#27=LINE('',#436,#43);
#28=LINE('',#437,#44);
#29=LINE('',#442,#45);
#30=LINE('',#451,#46);
#31=LINE('',#454,#47);
#32=LINE('',#459,#48);
#33=VECTOR('',#327,7.874);
#34=VECTOR('',#328,11.099675973649);
#35=VECTOR('',#329,7.874);
#36=VECTOR('',#330,11.099675973649);
#37=VECTOR('',#333,7.874);
#38=VECTOR('',#334,11.099675973649);
#39=VECTOR('',#335,7.874);
#40=VECTOR('',#336,11.099675973649);
#41=VECTOR('',#339,7.874);
#42=VECTOR('',#340,11.099675973649);
#43=VECTOR('',#341,7.874);
#44=VECTOR('',#342,11.099675973649);
#45=VECTOR('',#347,11.099675973649);
#46=VECTOR('',#360,7.874);
#47=VECTOR('',#363,7.874);
#48=VECTOR('',#372,11.099675973649);
#49=PLANE('',#285);
#50=PLANE('',#286);
#51=PLANE('',#287);
#52=PLANE('',#288);
#53=PLANE('',#300);
#54=PLANE('',#306);
#55=PLANE('',#315);
#56=PLANE('',#316);
#57=FACE_BOUND('',#86,.T.);
#58=FACE_BOUND('',#91,.T.);
#59=FACE_BOUND('',#97,.T.);
#60=FACE_BOUND('',#99,.T.);
#61=FACE_BOUND('',#101,.T.);
#62=FACE_BOUND('',#104,.T.);
#63=FACE_BOUND('',#106,.T.);
#64=FACE_BOUND('',#108,.T.);
#65=FACE_BOUND('',#110,.T.);
#66=FACE_BOUND('',#112,.T.);
#67=FACE_OUTER_BOUND('',#85,.T.);
#68=FACE_OUTER_BOUND('',#87,.T.);
#69=FACE_OUTER_BOUND('',#88,.T.);
#70=FACE_OUTER_BOUND('',#89,.T.);
#71=FACE_OUTER_BOUND('',#90,.T.);
#72=FACE_OUTER_BOUND('',#92,.T.);
#73=FACE_OUTER_BOUND('',#93,.T.);
#74=FACE_OUTER_BOUND('',#94,.T.);
#75=FACE_OUTER_BOUND('',#95,.T.);
#76=FACE_OUTER_BOUND('',#96,.T.);
#77=FACE_OUTER_BOUND('',#98,.T.);
#78=FACE_OUTER_BOUND('',#100,.T.);
#79=FACE_OUTER_BOUND('',#102,.T.);
#80=FACE_OUTER_BOUND('',#103,.T.);
#81=FACE_OUTER_BOUND('',#105,.T.);
#82=FACE_OUTER_BOUND('',#107,.T.);
#83=FACE_OUTER_BOUND('',#109,.T.);
#84=FACE_OUTER_BOUND('',#111,.T.);
#85=EDGE_LOOP('',(#188));
#86=EDGE_LOOP('',(#189));
#87=EDGE_LOOP('',(#190,#191,#192,#193));
#88=EDGE_LOOP('',(#194,#195,#196,#197));
#89=EDGE_LOOP('',(#198,#199,#200,#201));
#90=EDGE_LOOP('',(#202,#203,#204,#205,#206,#207,#208,#209));
#91=EDGE_LOOP('',(#210));
#92=EDGE_LOOP('',(#211,#212,#213,#214));
#93=EDGE_LOOP('',(#215,#216,#217,#218));
#94=EDGE_LOOP('',(#219,#220,#221,#222));
#95=EDGE_LOOP('',(#223,#224,#225,#226));
#96=EDGE_LOOP('',(#227));
#97=EDGE_LOOP('',(#228));
#98=EDGE_LOOP('',(#229));
#99=EDGE_LOOP('',(#230));
#100=EDGE_LOOP('',(#231,#232,#233,#234,#235,#236,#237,#238));
#101=EDGE_LOOP('',(#239));
#102=EDGE_LOOP('',(#240,#241,#242,#243));
#103=EDGE_LOOP('',(#244));
#104=EDGE_LOOP('',(#245));
#105=EDGE_LOOP('',(#246));
#106=EDGE_LOOP('',(#247));
#107=EDGE_LOOP('',(#248));
#108=EDGE_LOOP('',(#249));
#109=EDGE_LOOP('',(#250));
#110=EDGE_LOOP('',(#251));
#111=EDGE_LOOP('',(#252));
#112=EDGE_LOOP('',(#253));
#113=CIRCLE('',#283,0.762);
#114=CIRCLE('',#284,0.762);
#115=CIRCLE('',#289,7.8487);
#116=CIRCLE('',#290,7.8487);
#117=CIRCLE('',#291,7.8487);
#118=CIRCLE('',#292,7.8487);
#119=CIRCLE('',#293,3.175);
#120=CIRCLE('',#295,7.8487);
#121=CIRCLE('',#297,7.8487);
#122=CIRCLE('',#299,7.8487);
#123=CIRCLE('',#302,5.1435);
#124=CIRCLE('',#303,3.6195);
#125=CIRCLE('',#305,5.1435);
#126=CIRCLE('',#307,7.8487);
#127=CIRCLE('',#310,3.175);
#128=CIRCLE('',#312,2.5654);
#129=CIRCLE('',#314,2.5654);
#130=VERTEX_POINT('',#407);
#131=VERTEX_POINT('',#409);
#132=VERTEX_POINT('',#412);
#133=VERTEX_POINT('',#413);
#134=VERTEX_POINT('',#415);
#135=VERTEX_POINT('',#417);
#136=VERTEX_POINT('',#421);
#137=VERTEX_POINT('',#422);
#138=VERTEX_POINT('',#424);
#139=VERTEX_POINT('',#426);
#140=VERTEX_POINT('',#430);
#141=VERTEX_POINT('',#431);
#142=VERTEX_POINT('',#433);
#143=VERTEX_POINT('',#435);
#144=VERTEX_POINT('',#439);
#145=VERTEX_POINT('',#441);
#146=VERTEX_POINT('',#446);
#147=VERTEX_POINT('',#449);
#148=VERTEX_POINT('',#453);
#149=VERTEX_POINT('',#461);
#150=VERTEX_POINT('',#463);
#151=VERTEX_POINT('',#466);
#152=VERTEX_POINT('',#472);
#153=VERTEX_POINT('',#475);
#154=VERTEX_POINT('',#478);
#155=EDGE_CURVE('',#130,#130,#113,.T.);
#156=EDGE_CURVE('',#131,#131,#114,.T.);
#157=EDGE_CURVE('',#132,#133,#17,.T.);
#158=EDGE_CURVE('',#134,#132,#18,.T.);
#159=EDGE_CURVE('',#135,#134,#19,.T.);
#160=EDGE_CURVE('',#133,#135,#20,.T.);
#161=EDGE_CURVE('',#136,#137,#21,.T.);
#162=EDGE_CURVE('',#138,#136,#22,.T.);
#163=EDGE_CURVE('',#139,#138,#23,.T.);
#164=EDGE_CURVE('',#137,#139,#24,.T.);
#165=EDGE_CURVE('',#140,#141,#25,.T.);
#166=EDGE_CURVE('',#142,#140,#26,.T.);
#167=EDGE_CURVE('',#143,#142,#27,.T.);
#168=EDGE_CURVE('',#141,#143,#28,.T.);
#169=EDGE_CURVE('',#135,#144,#115,.T.);
#170=EDGE_CURVE('',#144,#145,#29,.T.);
#171=EDGE_CURVE('',#145,#141,#116,.T.);
#172=EDGE_CURVE('',#143,#137,#117,.T.);
#173=EDGE_CURVE('',#139,#133,#118,.T.);
#174=EDGE_CURVE('',#146,#146,#119,.T.);
#175=EDGE_CURVE('',#134,#147,#120,.T.);
#176=EDGE_CURVE('',#147,#144,#30,.T.);
#177=EDGE_CURVE('',#145,#148,#31,.T.);
#178=EDGE_CURVE('',#148,#140,#121,.T.);
#179=EDGE_CURVE('',#142,#136,#122,.T.);
#180=EDGE_CURVE('',#148,#147,#32,.T.);
#181=EDGE_CURVE('',#149,#149,#123,.T.);
#182=EDGE_CURVE('',#150,#150,#124,.T.);
#183=EDGE_CURVE('',#151,#151,#125,.T.);
#184=EDGE_CURVE('',#138,#132,#126,.T.);
#185=EDGE_CURVE('',#152,#152,#127,.T.);
#186=EDGE_CURVE('',#153,#153,#128,.T.);
#187=EDGE_CURVE('',#154,#154,#129,.T.);
#188=ORIENTED_EDGE('',*,*,#155,.F.);
#189=ORIENTED_EDGE('',*,*,#156,.F.);
#190=ORIENTED_EDGE('',*,*,#157,.F.);
#191=ORIENTED_EDGE('',*,*,#158,.F.);
#192=ORIENTED_EDGE('',*,*,#159,.F.);
#193=ORIENTED_EDGE('',*,*,#160,.F.);
#194=ORIENTED_EDGE('',*,*,#161,.F.);
#195=ORIENTED_EDGE('',*,*,#162,.F.);
#196=ORIENTED_EDGE('',*,*,#163,.F.);
#197=ORIENTED_EDGE('',*,*,#164,.F.);
#198=ORIENTED_EDGE('',*,*,#165,.F.);
#199=ORIENTED_EDGE('',*,*,#166,.F.);
#200=ORIENTED_EDGE('',*,*,#167,.F.);
#201=ORIENTED_EDGE('',*,*,#168,.F.);
#202=ORIENTED_EDGE('',*,*,#160,.T.);
#203=ORIENTED_EDGE('',*,*,#169,.T.);
#204=ORIENTED_EDGE('',*,*,#170,.T.);
#205=ORIENTED_EDGE('',*,*,#171,.T.);
#206=ORIENTED_EDGE('',*,*,#168,.T.);
#207=ORIENTED_EDGE('',*,*,#172,.T.);
#208=ORIENTED_EDGE('',*,*,#164,.T.);
#209=ORIENTED_EDGE('',*,*,#173,.T.);
#210=ORIENTED_EDGE('',*,*,#174,.F.);
#211=ORIENTED_EDGE('',*,*,#159,.T.);
#212=ORIENTED_EDGE('',*,*,#175,.T.);
#213=ORIENTED_EDGE('',*,*,#176,.T.);
#214=ORIENTED_EDGE('',*,*,#169,.F.);
#215=ORIENTED_EDGE('',*,*,#165,.T.);
#216=ORIENTED_EDGE('',*,*,#171,.F.);
#217=ORIENTED_EDGE('',*,*,#177,.T.);
#218=ORIENTED_EDGE('',*,*,#178,.T.);
#219=ORIENTED_EDGE('',*,*,#161,.T.);
#220=ORIENTED_EDGE('',*,*,#172,.F.);
#221=ORIENTED_EDGE('',*,*,#167,.T.);
#222=ORIENTED_EDGE('',*,*,#179,.T.);
#223=ORIENTED_EDGE('',*,*,#176,.F.);
#224=ORIENTED_EDGE('',*,*,#180,.F.);
#225=ORIENTED_EDGE('',*,*,#177,.F.);
#226=ORIENTED_EDGE('',*,*,#170,.F.);
#227=ORIENTED_EDGE('',*,*,#181,.F.);
#228=ORIENTED_EDGE('',*,*,#182,.T.);
#229=ORIENTED_EDGE('',*,*,#183,.F.);
#230=ORIENTED_EDGE('',*,*,#181,.T.);
#231=ORIENTED_EDGE('',*,*,#158,.T.);
#232=ORIENTED_EDGE('',*,*,#184,.F.);
#233=ORIENTED_EDGE('',*,*,#162,.T.);
#234=ORIENTED_EDGE('',*,*,#179,.F.);
#235=ORIENTED_EDGE('',*,*,#166,.T.);
#236=ORIENTED_EDGE('',*,*,#178,.F.);
#237=ORIENTED_EDGE('',*,*,#180,.T.);
#238=ORIENTED_EDGE('',*,*,#175,.F.);
#239=ORIENTED_EDGE('',*,*,#183,.T.);
#240=ORIENTED_EDGE('',*,*,#157,.T.);
#241=ORIENTED_EDGE('',*,*,#173,.F.);
#242=ORIENTED_EDGE('',*,*,#163,.T.);
#243=ORIENTED_EDGE('',*,*,#184,.T.);
#244=ORIENTED_EDGE('',*,*,#185,.F.);
#245=ORIENTED_EDGE('',*,*,#174,.T.);
#246=ORIENTED_EDGE('',*,*,#186,.F.);
#247=ORIENTED_EDGE('',*,*,#185,.T.);
#248=ORIENTED_EDGE('',*,*,#187,.F.);
#249=ORIENTED_EDGE('',*,*,#186,.T.);
#250=ORIENTED_EDGE('',*,*,#187,.T.);
#251=ORIENTED_EDGE('',*,*,#156,.T.);
#252=ORIENTED_EDGE('',*,*,#182,.F.);
#253=ORIENTED_EDGE('',*,*,#155,.T.);
#254=CYLINDRICAL_SURFACE('',#282,0.762);
#255=CYLINDRICAL_SURFACE('',#294,7.8487);
#256=CYLINDRICAL_SURFACE('',#296,7.8487);
#257=CYLINDRICAL_SURFACE('',#298,7.8487);
#258=CYLINDRICAL_SURFACE('',#304,5.1435);
#259=CYLINDRICAL_SURFACE('',#308,7.8487);
#260=CYLINDRICAL_SURFACE('',#309,3.175);
#261=CYLINDRICAL_SURFACE('',#313,2.5654);
#262=ADVANCED_FACE('',(#67,#57),#254,.F.);
#263=ADVANCED_FACE('',(#68),#49,.F.);
#264=ADVANCED_FACE('',(#69),#50,.F.);
#265=ADVANCED_FACE('',(#70),#51,.F.);
#266=ADVANCED_FACE('',(#71,#58),#52,.T.);
#267=ADVANCED_FACE('',(#72),#255,.T.);
#268=ADVANCED_FACE('',(#73),#256,.T.);
#269=ADVANCED_FACE('',(#74),#257,.T.);
#270=ADVANCED_FACE('',(#75),#53,.F.);
#271=ADVANCED_FACE('',(#76,#59),#15,.T.);
#272=ADVANCED_FACE('',(#77,#60),#258,.T.);
#273=ADVANCED_FACE('',(#78,#61),#54,.T.);
#274=ADVANCED_FACE('',(#79),#259,.T.);
#275=ADVANCED_FACE('',(#80,#62),#260,.T.);
#276=ADVANCED_FACE('',(#81,#63),#16,.T.);
#277=ADVANCED_FACE('',(#82,#64),#261,.T.);
#278=ADVANCED_FACE('',(#83,#65),#55,.T.);
#279=ADVANCED_FACE('',(#84,#66),#56,.T.);
#280=CLOSED_SHELL('',(#262,#263,#264,#265,#266,#267,#268,#269,#270,#271,
#272,#273,#274,#275,#276,#277,#278,#279));
#281=AXIS2_PLACEMENT_3D('placement',#405,#317,#318);
#282=AXIS2_PLACEMENT_3D('',#406,#319,#320);
#283=AXIS2_PLACEMENT_3D('',#408,#321,#322);
#284=AXIS2_PLACEMENT_3D('',#410,#323,#324);
#285=AXIS2_PLACEMENT_3D('',#411,#325,#326);
#286=AXIS2_PLACEMENT_3D('',#420,#331,#332);
#287=AXIS2_PLACEMENT_3D('',#429,#337,#338);
#288=AXIS2_PLACEMENT_3D('',#438,#343,#344);
#289=AXIS2_PLACEMENT_3D('',#440,#345,#346);
#290=AXIS2_PLACEMENT_3D('',#443,#348,#349);
#291=AXIS2_PLACEMENT_3D('',#444,#350,#351);
#292=AXIS2_PLACEMENT_3D('',#445,#352,#353);
#293=AXIS2_PLACEMENT_3D('',#447,#354,#355);
#294=AXIS2_PLACEMENT_3D('',#448,#356,#357);
#295=AXIS2_PLACEMENT_3D('',#450,#358,#359);
#296=AXIS2_PLACEMENT_3D('',#452,#361,#362);
#297=AXIS2_PLACEMENT_3D('',#455,#364,#365);
#298=AXIS2_PLACEMENT_3D('',#456,#366,#367);
#299=AXIS2_PLACEMENT_3D('',#457,#368,#369);
#300=AXIS2_PLACEMENT_3D('',#458,#370,#371);
#301=AXIS2_PLACEMENT_3D('',#460,#373,#374);
#302=AXIS2_PLACEMENT_3D('',#462,#375,#376);
#303=AXIS2_PLACEMENT_3D('',#464,#377,#378);
#304=AXIS2_PLACEMENT_3D('',#465,#379,#380);
#305=AXIS2_PLACEMENT_3D('',#467,#381,#382);
#306=AXIS2_PLACEMENT_3D('',#468,#383,#384);
#307=AXIS2_PLACEMENT_3D('',#469,#385,#386);
#308=AXIS2_PLACEMENT_3D('',#470,#387,#388);
#309=AXIS2_PLACEMENT_3D('',#471,#389,#390);
#310=AXIS2_PLACEMENT_3D('',#473,#391,#392);
#311=AXIS2_PLACEMENT_3D('',#474,#393,#394);
#312=AXIS2_PLACEMENT_3D('',#476,#395,#396);
#313=AXIS2_PLACEMENT_3D('',#477,#397,#398);
#314=AXIS2_PLACEMENT_3D('',#479,#399,#400);
#315=AXIS2_PLACEMENT_3D('',#480,#401,#402);
#316=AXIS2_PLACEMENT_3D('',#481,#403,#404);
#317=DIRECTION('axis',(0.,0.,1.));
#318=DIRECTION('refdir',(1.,0.,0.));
#319=DIRECTION('center_axis',(1.,1.83697019872103E-16,0.));
#320=DIRECTION('ref_axis',(-1.83697019872103E-16,1.,0.));
#321=DIRECTION('center_axis',(1.,1.83697019872103E-16,0.));
#322=DIRECTION('ref_axis',(-1.83697019872103E-16,1.,0.));
#323=DIRECTION('center_axis',(-1.,-1.83697019872103E-16,0.));
#324=DIRECTION('ref_axis',(-1.83697019872103E-16,1.,0.));
#325=DIRECTION('center_axis',(-6.38518008914127E-32,-1.,-1.49369887515444E-16));
#326=DIRECTION('ref_axis',(-1.,0.,0.));
#327=DIRECTION('',(1.,1.83697019872103E-16,0.));
#328=DIRECTION('',(-2.74388031952183E-32,1.49369887515444E-16,-1.));
#329=DIRECTION('',(-1.,-1.83697019872103E-16,0.));
#330=DIRECTION('',(2.74388031952183E-32,-1.49369887515444E-16,1.));
#331=DIRECTION('center_axis',(-6.38518008914127E-32,-2.10602227472812E-16,
1.));
#332=DIRECTION('ref_axis',(-1.,0.,0.));
#333=DIRECTION('',(1.,1.83697019872103E-16,0.));
#334=DIRECTION('',(1.83697019872103E-16,-1.,-2.10602227472812E-16));
#335=DIRECTION('',(-1.,-1.83697019872103E-16,0.));
#336=DIRECTION('',(-1.83697019872103E-16,1.,2.10602227472812E-16));
#337=DIRECTION('center_axis',(-6.38518008914127E-32,1.,2.71834567430179E-16));
#338=DIRECTION('ref_axis',(-1.,0.,0.));
#339=DIRECTION('',(1.,1.83697019872103E-16,0.));
#340=DIRECTION('',(4.99351999351462E-32,-2.71834567430179E-16,1.));
#341=DIRECTION('',(-1.,-1.83697019872103E-16,0.));
#342=DIRECTION('',(-4.99351999351462E-32,2.71834567430179E-16,-1.));
#343=DIRECTION('center_axis',(1.,1.83697019872103E-16,0.));
#344=DIRECTION('ref_axis',(0.,0.,-1.));
#345=DIRECTION('center_axis',(1.,1.83697019872103E-16,0.));
#346=DIRECTION('ref_axis',(0.,1.,0.));
#347=DIRECTION('',(1.83697019872103E-16,-1.,-3.33066907387547E-16));
#348=DIRECTION('center_axis',(1.,1.83697019872103E-16,0.));
#349=DIRECTION('ref_axis',(0.,1.,0.));
#350=DIRECTION('center_axis',(1.,1.83697019872103E-16,0.));
#351=DIRECTION('ref_axis',(0.,1.,0.));
#352=DIRECTION('center_axis',(1.,1.83697019872103E-16,0.));
#353=DIRECTION('ref_axis',(0.,1.,0.));
#354=DIRECTION('center_axis',(1.,1.83697019872103E-16,0.));
#355=DIRECTION('ref_axis',(0.,1.,0.));
#356=DIRECTION('center_axis',(1.,1.83697019872103E-16,0.));
#357=DIRECTION('ref_axis',(0.,1.,0.));
#358=DIRECTION('center_axis',(1.,1.83697019872103E-16,0.));
#359=DIRECTION('ref_axis',(0.,1.,0.));
#360=DIRECTION('',(1.,1.83697019872103E-16,0.));
#361=DIRECTION('center_axis',(1.,1.83697019872103E-16,0.));
#362=DIRECTION('ref_axis',(0.,1.,0.));
#363=DIRECTION('',(-1.,-1.83697019872103E-16,0.));
#364=DIRECTION('center_axis',(1.,1.83697019872103E-16,0.));
#365=DIRECTION('ref_axis',(0.,1.,0.));
#366=DIRECTION('center_axis',(1.,1.83697019872103E-16,0.));
#367=DIRECTION('ref_axis',(0.,1.,0.));
#368=DIRECTION('center_axis',(1.,1.83697019872103E-16,0.));
#369=DIRECTION('ref_axis',(0.,1.,0.));
#370=DIRECTION('center_axis',(-6.38518008914127E-32,3.33066907387547E-16,
-1.));
#371=DIRECTION('ref_axis',(-1.,0.,0.));
#372=DIRECTION('',(-1.83697019872103E-16,1.,3.33066907387547E-16));
#373=DIRECTION('center_axis',(1.,1.83697019872103E-16,0.));
#374=DIRECTION('ref_axis',(0.,1.,0.));
#375=DIRECTION('center_axis',(1.,1.83697019872103E-16,0.));
#376=DIRECTION('ref_axis',(0.,1.,0.));
#377=DIRECTION('center_axis',(1.,1.83697019872103E-16,0.));
#378=DIRECTION('ref_axis',(0.,1.,0.));
#379=DIRECTION('center_axis',(1.,1.83697019872103E-16,0.));
#380=DIRECTION('ref_axis',(0.,1.,0.));
#381=DIRECTION('center_axis',(1.,1.83697019872103E-16,0.));
#382=DIRECTION('ref_axis',(0.,1.,0.));
#383=DIRECTION('center_axis',(-1.,-1.83697019872103E-16,0.));
#384=DIRECTION('ref_axis',(0.,0.,1.));
#385=DIRECTION('center_axis',(1.,1.83697019872103E-16,0.));
#386=DIRECTION('ref_axis',(0.,1.,0.));
#387=DIRECTION('center_axis',(1.,1.83697019872103E-16,0.));
#388=DIRECTION('ref_axis',(0.,1.,0.));
#389=DIRECTION('center_axis',(1.,1.83697019872103E-16,0.));
#390=DIRECTION('ref_axis',(0.,1.,0.));
#391=DIRECTION('center_axis',(1.,1.83697019872103E-16,0.));
#392=DIRECTION('ref_axis',(0.,1.,0.));
#393=DIRECTION('center_axis',(-1.,-1.83697019872103E-16,0.));
#394=DIRECTION('ref_axis',(0.,1.,0.));
#395=DIRECTION('center_axis',(1.,1.83697019872103E-16,0.));
#396=DIRECTION('ref_axis',(0.,1.,0.));
#397=DIRECTION('center_axis',(1.,1.83697019872103E-16,0.));
#398=DIRECTION('ref_axis',(0.,1.,0.));
#399=DIRECTION('center_axis',(1.,1.83697019872103E-16,0.));
#400=DIRECTION('ref_axis',(0.,1.,0.));
#401=DIRECTION('center_axis',(1.,1.83697019872103E-16,0.));
#402=DIRECTION('ref_axis',(0.,0.,-1.));
#403=DIRECTION('center_axis',(-1.,-1.83697019872103E-16,0.));
#404=DIRECTION('ref_axis',(0.,0.,1.));
#405=CARTESIAN_POINT('',(0.,0.,0.));
#406=CARTESIAN_POINT('Origin',(-4.01215479696824,-7.37020879468628E-16,
0.));
#407=CARTESIAN_POINT('',(6.95088641455121E-16,-0.762,-9.33180860950283E-17));
#408=CARTESIAN_POINT('Origin',(5.55111512312578E-16,3.69778549322349E-31,
0.));
#409=CARTESIAN_POINT('',(28.702,0.762000000000005,0.));
#410=CARTESIAN_POINT('Origin',(28.702,5.2724718643691E-15,0.));
#411=CARTESIAN_POINT('Origin',(19.304,5.5499,10.));
#412=CARTESIAN_POINT('',(11.43,5.5499,-5.54983798682448));
#413=CARTESIAN_POINT('',(19.304,5.5499,-5.54983798682449));
#414=CARTESIAN_POINT('',(15.367,5.5499,-5.54983798682448));
#415=CARTESIAN_POINT('',(11.43,5.5499,5.54983798682448));
#416=CARTESIAN_POINT('',(11.43,5.5499,5.));
#417=CARTESIAN_POINT('',(19.304,5.5499,5.54983798682448));
#418=CARTESIAN_POINT('',(15.367,5.5499,5.54983798682449));
#419=CARTESIAN_POINT('',(19.304,5.5499,5.));
#420=CARTESIAN_POINT('Origin',(19.304,10.,-5.5499));
#421=CARTESIAN_POINT('',(11.43,-5.54983798682448,-5.5499));
#422=CARTESIAN_POINT('',(19.304,-5.54983798682449,-5.5499));
#423=CARTESIAN_POINT('',(15.367,-5.54983798682448,-5.5499));
#424=CARTESIAN_POINT('',(11.43,5.54983798682448,-5.5499));
#425=CARTESIAN_POINT('',(11.43,8.24805,-5.5499));
#426=CARTESIAN_POINT('',(19.304,5.54983798682448,-5.5499));
#427=CARTESIAN_POINT('',(15.367,5.54983798682449,-5.5499));
#428=CARTESIAN_POINT('',(19.304,7.755925,-5.5499));
#429=CARTESIAN_POINT('Origin',(19.304,-5.5499,-10.));
#430=CARTESIAN_POINT('',(11.43,-5.5499,5.54983798682448));
#431=CARTESIAN_POINT('',(19.304,-5.5499,5.54983798682449));
#432=CARTESIAN_POINT('',(15.367,-5.5499,5.54983798682448));
#433=CARTESIAN_POINT('',(11.43,-5.5499,-5.54983798682448));
#434=CARTESIAN_POINT('',(11.43,-5.5499,-5.));
#435=CARTESIAN_POINT('',(19.304,-5.5499,-5.54983798682448));
#436=CARTESIAN_POINT('',(15.367,-5.5499,-5.54983798682448));
#437=CARTESIAN_POINT('',(19.304,-5.5499,-5.));
#438=CARTESIAN_POINT('Origin',(19.304,5.51185,0.));
#439=CARTESIAN_POINT('',(19.304,5.54983798682449,5.5499));
#440=CARTESIAN_POINT('Origin',(19.304,3.54608727161108E-15,0.));
#441=CARTESIAN_POINT('',(19.304,-5.54983798682448,5.5499));
#442=CARTESIAN_POINT('',(19.304,-2.244075,5.5499));
#443=CARTESIAN_POINT('Origin',(19.304,3.54608727161108E-15,0.));
#444=CARTESIAN_POINT('Origin',(19.304,3.54608727161108E-15,0.));
#445=CARTESIAN_POINT('Origin',(19.304,3.54608727161108E-15,0.));
#446=CARTESIAN_POINT('',(19.304,3.175,0.));
#447=CARTESIAN_POINT('Origin',(19.304,3.54608727161108E-15,0.));
#448=CARTESIAN_POINT('Origin',(15.367,2.82287210437461E-15,0.));
#449=CARTESIAN_POINT('',(11.43,5.54983798682448,5.5499));
#450=CARTESIAN_POINT('Origin',(11.43,2.09965693713814E-15,0.));
#451=CARTESIAN_POINT('',(15.367,5.54983798682448,5.5499));
#452=CARTESIAN_POINT('Origin',(15.367,2.82287210437461E-15,0.));
#453=CARTESIAN_POINT('',(11.43,-5.54983798682448,5.5499));
#454=CARTESIAN_POINT('',(15.367,-5.54983798682448,5.5499));
#455=CARTESIAN_POINT('Origin',(11.43,2.09965693713814E-15,0.));
#456=CARTESIAN_POINT('Origin',(15.367,2.82287210437461E-15,0.));
#457=CARTESIAN_POINT('Origin',(11.43,2.09965693713814E-15,0.));
#458=CARTESIAN_POINT('Origin',(19.304,-10.,5.5499));
#459=CARTESIAN_POINT('',(11.43,-1.75195,5.5499));
#460=CARTESIAN_POINT('Origin',(0.762000000000001,1.39977129142543E-16,0.));
#461=CARTESIAN_POINT('',(1.524,5.1435,0.));
#462=CARTESIAN_POINT('Origin',(1.524,2.79954258285085E-16,0.));
#463=CARTESIAN_POINT('',(0.,3.6195,0.));
#464=CARTESIAN_POINT('Origin',(6.64891363427077E-16,1.22138562000253E-31,
0.));
#465=CARTESIAN_POINT('Origin',(6.477,1.18980559771161E-15,0.));
#466=CARTESIAN_POINT('',(11.43,5.1435,0.));
#467=CARTESIAN_POINT('Origin',(11.43,2.09965693713814E-15,0.));
#468=CARTESIAN_POINT('Origin',(11.43,6.4961,0.));
#469=CARTESIAN_POINT('Origin',(11.43,2.09965693713814E-15,0.));
#470=CARTESIAN_POINT('Origin',(15.367,2.82287210437461E-15,0.));
#471=CARTESIAN_POINT('Origin',(22.8092,4.18998206566677E-15,0.));
#472=CARTESIAN_POINT('',(26.3144,3.175,0.));
#473=CARTESIAN_POINT('Origin',(26.3144,4.83387685972247E-15,0.));
#474=CARTESIAN_POINT('Origin',(26.6192,4.88986771137948E-15,0.));
#475=CARTESIAN_POINT('',(26.924,2.5654,0.));
#476=CARTESIAN_POINT('Origin',(26.924,4.9458585630365E-15,0.));
#477=CARTESIAN_POINT('Origin',(27.813,5.1091652137028E-15,0.));
#478=CARTESIAN_POINT('',(28.702,2.5654,0.));
#479=CARTESIAN_POINT('Origin',(28.702,5.2724718643691E-15,0.));
#480=CARTESIAN_POINT('Origin',(28.702,1.28270000000001,0.));
#481=CARTESIAN_POINT('Origin',(0.,1.80975,0.));
#482=UNCERTAINTY_MEASURE_WITH_UNIT(LENGTH_MEASURE(0.01),#486,
'DISTANCE_ACCURACY_VALUE',
'Maximum model space distance between geometric entities at asserted c
onnectivities');
#483=UNCERTAINTY_MEASURE_WITH_UNIT(LENGTH_MEASURE(1.E-6),#486,
'DISTANCE_ACCURACY_VALUE',
'Maximum model space distance between geometric entities at asserted c
onnectivities');
#484=(
GEOMETRIC_REPRESENTATION_CONTEXT(3)
GLOBAL_UNCERTAINTY_ASSIGNED_CONTEXT((#482))
GLOBAL_UNIT_ASSIGNED_CONTEXT((#486,#489,#487))
REPRESENTATION_CONTEXT('','3D')
);
#485=(
GEOMETRIC_REPRESENTATION_CONTEXT(3)
GLOBAL_UNCERTAINTY_ASSIGNED_CONTEXT((#483))
GLOBAL_UNIT_ASSIGNED_CONTEXT((#486,#489,#487))
REPRESENTATION_CONTEXT('','3D')
);
#486=(
LENGTH_UNIT()
NAMED_UNIT(*)
SI_UNIT(.MILLI.,.METRE.)
);
#487=(
NAMED_UNIT(*)
SI_UNIT($,.STERADIAN.)
SOLID_ANGLE_UNIT()
);
#488=DIMENSIONAL_EXPONENTS(0.,0.,0.,0.,0.,0.,0.);
#489=(
CONVERSION_BASED_UNIT('degree',#491)
NAMED_UNIT(#488)
PLANE_ANGLE_UNIT()
);
#490=(
NAMED_UNIT(*)
PLANE_ANGLE_UNIT()
SI_UNIT($,.RADIAN.)
);
#491=PLANE_ANGLE_MEASURE_WITH_UNIT(PLANE_ANGLE_MEASURE(0.01745329252),#490);
#492=SHAPE_DEFINITION_REPRESENTATION(#493,#494);
#493=PRODUCT_DEFINITION_SHAPE('',$,#496);
#494=SHAPE_REPRESENTATION('',(#281),#484);
#495=PRODUCT_DEFINITION_CONTEXT('part definition',#500,'design');
#496=PRODUCT_DEFINITION('312785','312785',#497,#495);
#497=PRODUCT_DEFINITION_FORMATION('',$,#502);
#498=PRODUCT_RELATED_PRODUCT_CATEGORY('312785','312785',(#502));
#499=APPLICATION_PROTOCOL_DEFINITION('international standard',
'automotive_design',2009,#500);
#500=APPLICATION_CONTEXT(
'Core Data for Automotive Mechanical Design Process');
#501=PRODUCT_CONTEXT('part definition',#500,'mechanical');
#502=PRODUCT('312785','312785',$,(#501));
#503=PRESENTATION_STYLE_ASSIGNMENT((#504));
#504=SURFACE_STYLE_USAGE(.BOTH.,#505);
#505=SURFACE_SIDE_STYLE($,(#506));
#506=SURFACE_STYLE_FILL_AREA(#507);
#507=FILL_AREA_STYLE($,(#508));
#508=FILL_AREA_STYLE_COLOUR($,#509);
#509=COLOUR_RGB('',0.858823529411765,0.823529411764706,0.705882352941177);
ENDSEC;
END-ISO-10303-21;
