ISO-10303-21;
HEADER;
/****************************************************************
 * Generated by software with PDE/Lib inside                    *
 * PDElib Version v51a, created Thu 01/14/2010                  *
 * ITI Transcendata (http://www.transcendata.com/)              *
 ****************************************************************/
FILE_DESCRIPTION((''),'2;1');
FILE_NAME('\\\\VICIVMCAD12\\am\\VAULT,D-CL_VICI\\Tech-Support\\Dimension Fittings\\5 Allg-Dokument\\313179.stp','2012-10-03T14:56:05',('Franzp'),(''),'Autodesk Inventor 2011','Autodesk Inventor 2011','');
FILE_SCHEMA(('AUTOMOTIVE_DESIGN { 1 0 10303 214 1 1 1 1 }'));
ENDSEC;
DATA;
#5=APPLICATION_CONTEXT('automotive design');
#6=APPLICATION_PROTOCOL_DEFINITION('International Standard','automotive_design',2001,#5);
#7=PRODUCT_CONTEXT('',#5,'mechanical');
#8=PRODUCT('313179','313179',$,(#7));
#9=PRODUCT_RELATED_PRODUCT_CATEGORY('part',$,(#8));
#10=PRODUCT_DEFINITION_FORMATION('',$,#8);
#11=PRODUCT_DEFINITION_CONTEXT('part definition',#5,'design');
#12=PRODUCT_DEFINITION('',$,#10,#11);
#18=(NAMED_UNIT(*)PLANE_ANGLE_UNIT()SI_UNIT($,.RADIAN.));
#19=DIMENSIONAL_EXPONENTS(0.0,0.0,0.0,0.0,0.0,0.0,0.0);
#20=PLANE_ANGLE_MEASURE_WITH_UNIT(PLANE_ANGLE_MEASURE(0.017453292500000),#18);
#24=(CONVERSION_BASED_UNIT('DEGREE',#20)NAMED_UNIT(#19)PLANE_ANGLE_UNIT());
#28=(NAMED_UNIT(*)SI_UNIT($,.STERADIAN.)SOLID_ANGLE_UNIT());
#32=(LENGTH_UNIT()NAMED_UNIT(*)SI_UNIT(.MILLI.,.METRE.));
#34=UNCERTAINTY_MEASURE_WITH_UNIT(LENGTH_MEASURE(0.010000000000000),#32,'DISTANCE_ACCURACY_VALUE','');
#36=(GEOMETRIC_REPRESENTATION_CONTEXT(3)GLOBAL_UNCERTAINTY_ASSIGNED_CONTEXT((#34))GLOBAL_UNIT_ASSIGNED_CONTEXT((#24,#28,#32))REPRESENTATION_CONTEXT('None','None'));
#37=AXIS2_PLACEMENT_3D('',#38,#39,#40);
#38=CARTESIAN_POINT('',(0.0,0.0,0.0));
#39=DIRECTION('',(0.0,0.0,1.0));
#40=DIRECTION('',(1.0,0.0,0.0));
#41=SHAPE_REPRESENTATION('',(#37,#388,#688),#36);
#42=PRODUCT_DEFINITION_SHAPE('','',#12);
#43=SHAPE_DEFINITION_REPRESENTATION(#42,#41);
#44=APPLICATION_CONTEXT('automotive design');
#45=APPLICATION_PROTOCOL_DEFINITION('International Standard','automotive_design',2001,#44);
#46=PRODUCT_CONTEXT('',#44,'mechanical');
#47=PRODUCT('313178','313178',$,(#46));
#48=PRODUCT_RELATED_PRODUCT_CATEGORY('part',$,(#47));
#49=PRODUCT_DEFINITION_FORMATION('',$,#47);
#50=PRODUCT_DEFINITION_CONTEXT('part definition',#44,'design');
#51=PRODUCT_DEFINITION('',$,#49,#50);
#57=(NAMED_UNIT(*)PLANE_ANGLE_UNIT()SI_UNIT($,.RADIAN.));
#58=DIMENSIONAL_EXPONENTS(0.0,0.0,0.0,0.0,0.0,0.0,0.0);
#59=PLANE_ANGLE_MEASURE_WITH_UNIT(PLANE_ANGLE_MEASURE(0.017453292500000),#57);
#63=(CONVERSION_BASED_UNIT('DEGREE',#59)NAMED_UNIT(#58)PLANE_ANGLE_UNIT());
#67=(NAMED_UNIT(*)SI_UNIT($,.STERADIAN.)SOLID_ANGLE_UNIT());
#71=(LENGTH_UNIT()NAMED_UNIT(*)SI_UNIT(.MILLI.,.METRE.));
#73=UNCERTAINTY_MEASURE_WITH_UNIT(LENGTH_MEASURE(0.010000000000000),#71,'DISTANCE_ACCURACY_VALUE','');
#75=(GEOMETRIC_REPRESENTATION_CONTEXT(3)GLOBAL_UNCERTAINTY_ASSIGNED_CONTEXT((#73))GLOBAL_UNIT_ASSIGNED_CONTEXT((#63,#67,#71))REPRESENTATION_CONTEXT('None','None'));
#76=AXIS2_PLACEMENT_3D('',#77,#78,#79);
#77=CARTESIAN_POINT('',(0.0,0.0,0.0));
#78=DIRECTION('',(0.0,0.0,1.0));
#79=DIRECTION('',(1.0,0.0,0.0));
#80=SHAPE_REPRESENTATION('',(#76),#75);
#81=PRODUCT_DEFINITION_SHAPE('','',#51);
#82=SHAPE_DEFINITION_REPRESENTATION(#81,#80);
#88=(NAMED_UNIT(*)PLANE_ANGLE_UNIT()SI_UNIT($,.RADIAN.));
#89=DIMENSIONAL_EXPONENTS(0.0,0.0,0.0,0.0,0.0,0.0,0.0);
#90=PLANE_ANGLE_MEASURE_WITH_UNIT(PLANE_ANGLE_MEASURE(0.017453292500000),#88);
#94=(CONVERSION_BASED_UNIT('DEGREE',#90)NAMED_UNIT(#89)PLANE_ANGLE_UNIT());
#98=(NAMED_UNIT(*)SI_UNIT($,.STERADIAN.)SOLID_ANGLE_UNIT());
#102=(LENGTH_UNIT()NAMED_UNIT(*)SI_UNIT(.MILLI.,.METRE.));
#104=UNCERTAINTY_MEASURE_WITH_UNIT(LENGTH_MEASURE(0.000001000000000),#102,'DISTANCE_ACCURACY_VALUE','');
#106=(GEOMETRIC_REPRESENTATION_CONTEXT(3)GLOBAL_UNCERTAINTY_ASSIGNED_CONTEXT((#104))GLOBAL_UNIT_ASSIGNED_CONTEXT((#94,#98,#102))REPRESENTATION_CONTEXT('','3D'));
#107=CARTESIAN_POINT('',(10.541000000000000,0.0,0.0));
#108=DIRECTION('',(-1.0,0.0,0.0));
#109=DIRECTION('',(0.0,0.0,1.0));
#110=AXIS2_PLACEMENT_3D('',#107,#108,#109);
#111=TOROIDAL_SURFACE('',#110,0.901700000000000,0.127000000000000);
#112=CARTESIAN_POINT('',(10.541000000000000,0.774700000000000,-9.487339E-017));
#113=VERTEX_POINT('',#112);
#114=CARTESIAN_POINT('',(10.541000000000000,0.0,0.0));
#115=DIRECTION('',(-1.0,0.0,0.0));
#116=DIRECTION('',(0.0,-1.0,0.0));
#117=AXIS2_PLACEMENT_3D('',#114,#115,#116);
#118=CIRCLE('',#117,0.774700000000000);
#119=EDGE_CURVE('',#113,#113,#118,.T.);
#120=ORIENTED_EDGE('',*,*,#119,.T.);
#121=EDGE_LOOP('',(#120));
#122=FACE_OUTER_BOUND('',#121,.T.);
#123=CARTESIAN_POINT('',(10.667999999999999,0.901700000000000,1.104264E-016));
#124=VERTEX_POINT('',#123);
#125=CARTESIAN_POINT('',(10.667999999999999,0.0,0.0));
#126=DIRECTION('',(1.0,0.0,0.0));
#127=DIRECTION('',(0.0,-1.0,0.0));
#128=AXIS2_PLACEMENT_3D('',#125,#126,#127);
#129=CIRCLE('',#128,0.901700000000000);
#130=EDGE_CURVE('',#124,#124,#129,.T.);
#131=ORIENTED_EDGE('',*,*,#130,.T.);
#132=EDGE_LOOP('',(#131));
#133=FACE_BOUND('',#132,.T.);
#134=ADVANCED_FACE('',(#122,#133),#111,.T.);
#135=CARTESIAN_POINT('',(13.944576867011778,0.0,0.0));
#136=DIRECTION('',(-1.0,0.0,0.0));
#137=DIRECTION('',(0.0,-1.0,0.0));
#138=AXIS2_PLACEMENT_3D('',#135,#136,#137);
#139=CYLINDRICAL_SURFACE('',#138,0.774700000000000);
#140=CARTESIAN_POINT('',(9.906000000000002,0.774700000000000,-9.487339E-017));
#141=VERTEX_POINT('',#140);
#142=CARTESIAN_POINT('',(9.906000000000002,0.0,0.0));
#143=DIRECTION('',(-1.0,0.0,0.0));
#144=DIRECTION('',(0.0,-1.0,0.0));
#145=AXIS2_PLACEMENT_3D('',#142,#143,#144);
#146=CIRCLE('',#145,0.774700000000000);
#147=EDGE_CURVE('',#141,#141,#146,.T.);
#148=ORIENTED_EDGE('',*,*,#147,.T.);
#149=EDGE_LOOP('',(#148));
#150=FACE_OUTER_BOUND('',#149,.T.);
#151=ORIENTED_EDGE('',*,*,#119,.F.);
#152=EDGE_LOOP('',(#151));
#153=FACE_BOUND('',#152,.T.);
#154=ADVANCED_FACE('',(#150,#153),#139,.F.);
#155=CARTESIAN_POINT('',(10.667999999999999,0.635000000000000,0.0));
#156=DIRECTION('',(1.0,0.0,0.0));
#157=DIRECTION('',(0.0,0.0,-1.0));
#158=AXIS2_PLACEMENT_3D('',#155,#156,#157);
#159=PLANE('',#158);
#160=CARTESIAN_POINT('',(10.667999999999999,1.270000000000000,0.0));
#161=VERTEX_POINT('',#160);
#162=CARTESIAN_POINT('',(10.667999999999999,0.0,0.0));
#163=DIRECTION('',(1.0,0.0,0.0));
#164=DIRECTION('',(0.0,1.0,0.0));
#165=AXIS2_PLACEMENT_3D('',#162,#163,#164);
#166=CIRCLE('',#165,1.270000000000000);
#167=EDGE_CURVE('',#161,#161,#166,.T.);
#168=ORIENTED_EDGE('',*,*,#167,.T.);
#169=EDGE_LOOP('',(#168));
#170=FACE_OUTER_BOUND('',#169,.T.);
#171=ORIENTED_EDGE('',*,*,#130,.F.);
#172=EDGE_LOOP('',(#171));
#173=FACE_BOUND('',#172,.T.);
#174=ADVANCED_FACE('',(#170,#173),#159,.T.);
#175=CARTESIAN_POINT('',(0.186974884677060,0.0,0.0));
#176=DIRECTION('',(-1.0,0.0,0.0));
#177=DIRECTION('',(0.0,-1.0,0.0));
#178=AXIS2_PLACEMENT_3D('',#175,#176,#177);
#179=CONICAL_SURFACE('',#178,0.971550000000000,30.000000000000004);
#180=CARTESIAN_POINT('',(1.388456E-016,-1.079500000000000,0.0));
#181=VERTEX_POINT('',#180);
#182=CARTESIAN_POINT('',(1.387779E-016,0.0,0.0));
#183=DIRECTION('',(1.0,0.0,0.0));
#184=DIRECTION('',(0.0,-1.0,0.0));
#185=AXIS2_PLACEMENT_3D('',#182,#183,#184);
#186=CIRCLE('',#185,1.079500000000000);
#187=EDGE_CURVE('',#181,#181,#186,.T.);
#188=ORIENTED_EDGE('',*,*,#187,.F.);
#189=EDGE_LOOP('',(#188));
#190=FACE_OUTER_BOUND('',#189,.T.);
#191=CARTESIAN_POINT('',(0.373949769354121,-0.863600000000000,0.0));
#192=VERTEX_POINT('',#191);
#193=CARTESIAN_POINT('',(0.373949769354121,0.0,0.0));
#194=DIRECTION('',(-1.0,0.0,0.0));
#195=DIRECTION('',(0.0,-1.0,0.0));
#196=AXIS2_PLACEMENT_3D('',#193,#194,#195);
#197=CIRCLE('',#196,0.863600000000000);
#198=EDGE_CURVE('',#192,#192,#197,.T.);
#199=ORIENTED_EDGE('',*,*,#198,.F.);
#200=EDGE_LOOP('',(#199));
#201=FACE_BOUND('',#200,.T.);
#202=ADVANCED_FACE('',(#190,#201),#179,.F.);
#203=CARTESIAN_POINT('',(4.953000000000001,0.0,0.0));
#204=DIRECTION('',(-1.0,0.0,0.0));
#205=DIRECTION('',(0.0,-1.0,0.0));
#206=AXIS2_PLACEMENT_3D('',#203,#204,#205);
#207=CYLINDRICAL_SURFACE('',#206,0.863600000000000);
#208=ORIENTED_EDGE('',*,*,#198,.T.);
#209=EDGE_LOOP('',(#208));
#210=FACE_OUTER_BOUND('',#209,.T.);
#211=CARTESIAN_POINT('',(9.906000000000002,-0.863600000000000,0.0));
#212=VERTEX_POINT('',#211);
#213=CARTESIAN_POINT('',(9.906000000000002,0.0,0.0));
#214=DIRECTION('',(-1.0,0.0,0.0));
#215=DIRECTION('',(0.0,-1.0,0.0));
#216=AXIS2_PLACEMENT_3D('',#213,#214,#215);
#217=CIRCLE('',#216,0.863600000000000);
#218=EDGE_CURVE('',#212,#212,#217,.T.);
#219=ORIENTED_EDGE('',*,*,#218,.F.);
#220=EDGE_LOOP('',(#219));
#221=FACE_BOUND('',#220,.T.);
#222=ADVANCED_FACE('',(#210,#221),#207,.F.);
#223=CARTESIAN_POINT('',(9.906000000000002,0.0,0.0));
#224=DIRECTION('',(-1.0,0.0,0.0));
#225=DIRECTION('',(0.0,-1.0,0.0));
#226=AXIS2_PLACEMENT_3D('',#223,#224,#225);
#227=PLANE('',#226);
#228=ORIENTED_EDGE('',*,*,#218,.T.);
#229=EDGE_LOOP('',(#228));
#230=FACE_OUTER_BOUND('',#229,.T.);
#231=ORIENTED_EDGE('',*,*,#147,.F.);
#232=EDGE_LOOP('',(#231));
#233=FACE_BOUND('',#232,.T.);
#234=ADVANCED_FACE('',(#230,#233),#227,.T.);
#235=CARTESIAN_POINT('',(0.127000000000001,0.0,0.0));
#236=DIRECTION('',(1.0,0.0,0.0));
#237=DIRECTION('',(0.0,1.0,0.0));
#238=AXIS2_PLACEMENT_3D('',#235,#236,#237);
#239=CONICAL_SURFACE('',#238,3.048000000000004,44.999999999998970);
#240=CARTESIAN_POINT('',(0.254000000000001,3.174999999999999,0.0));
#241=VERTEX_POINT('',#240);
#242=CARTESIAN_POINT('',(0.254000000000001,0.0,0.0));
#243=DIRECTION('',(1.0,0.0,0.0));
#244=DIRECTION('',(0.0,1.0,0.0));
#245=AXIS2_PLACEMENT_3D('',#242,#243,#244);
#246=CIRCLE('',#245,3.174999999999999);
#247=EDGE_CURVE('',#241,#241,#246,.T.);
#248=ORIENTED_EDGE('',*,*,#247,.F.);
#249=EDGE_LOOP('',(#248));
#250=FACE_OUTER_BOUND('',#249,.T.);
#251=CARTESIAN_POINT('',(2.776913E-016,2.921000000000007,0.0));
#252=VERTEX_POINT('',#251);
#253=CARTESIAN_POINT('',(2.776913E-016,0.0,0.0));
#254=DIRECTION('',(1.0,0.0,0.0));
#255=DIRECTION('',(0.0,1.0,0.0));
#256=AXIS2_PLACEMENT_3D('',#253,#254,#255);
#257=CIRCLE('',#256,2.921000000000007);
#258=EDGE_CURVE('',#252,#252,#257,.T.);
#259=ORIENTED_EDGE('',*,*,#258,.T.);
#260=EDGE_LOOP('',(#259));
#261=FACE_BOUND('',#260,.T.);
#262=ADVANCED_FACE('',(#250,#261),#239,.T.);
#263=CARTESIAN_POINT('',(2.794000000000001,0.0,0.0));
#264=DIRECTION('',(1.0,0.0,0.0));
#265=DIRECTION('',(0.0,1.0,0.0));
#266=AXIS2_PLACEMENT_3D('',#263,#264,#265);
#267=CYLINDRICAL_SURFACE('',#266,3.175000000000000);
#268=CARTESIAN_POINT('',(5.334000000000001,3.175000000000000,0.0));
#269=VERTEX_POINT('',#268);
#270=CARTESIAN_POINT('',(5.334000000000001,0.0,0.0));
#271=DIRECTION('',(1.0,0.0,0.0));
#272=DIRECTION('',(0.0,1.0,0.0));
#273=AXIS2_PLACEMENT_3D('',#270,#271,#272);
#274=CIRCLE('',#273,3.175000000000000);
#275=EDGE_CURVE('',#269,#269,#274,.T.);
#276=ORIENTED_EDGE('',*,*,#275,.F.);
#277=EDGE_LOOP('',(#276));
#278=FACE_OUTER_BOUND('',#277,.T.);
#279=ORIENTED_EDGE('',*,*,#247,.T.);
#280=EDGE_LOOP('',(#279));
#281=FACE_BOUND('',#280,.T.);
#282=ADVANCED_FACE('',(#278,#281),#267,.T.);
#283=CARTESIAN_POINT('',(5.461000000000000,0.0,0.0));
#284=DIRECTION('',(-1.0,0.0,0.0));
#285=DIRECTION('',(0.0,1.0,0.0));
#286=AXIS2_PLACEMENT_3D('',#283,#284,#285);
#287=CONICAL_SURFACE('',#286,3.048000000000000,45.000000000000199);
#288=CARTESIAN_POINT('',(5.587999999999999,2.921000000000000,0.0));
#289=VERTEX_POINT('',#288);
#290=CARTESIAN_POINT('',(5.587999999999999,0.0,0.0));
#291=DIRECTION('',(1.0,0.0,0.0));
#292=DIRECTION('',(0.0,1.0,0.0));
#293=AXIS2_PLACEMENT_3D('',#290,#291,#292);
#294=CIRCLE('',#293,2.921000000000000);
#295=EDGE_CURVE('',#289,#289,#294,.T.);
#296=ORIENTED_EDGE('',*,*,#295,.F.);
#297=EDGE_LOOP('',(#296));
#298=FACE_OUTER_BOUND('',#297,.T.);
#299=ORIENTED_EDGE('',*,*,#275,.T.);
#300=EDGE_LOOP('',(#299));
#301=FACE_BOUND('',#300,.T.);
#302=ADVANCED_FACE('',(#298,#301),#287,.T.);
#303=CARTESIAN_POINT('',(5.587999999999999,2.336800000000000,0.0));
#304=DIRECTION('',(1.0,0.0,0.0));
#305=DIRECTION('',(0.0,0.0,-1.0));
#306=AXIS2_PLACEMENT_3D('',#303,#304,#305);
#307=PLANE('',#306);
#308=ORIENTED_EDGE('',*,*,#295,.T.);
#309=EDGE_LOOP('',(#308));
#310=FACE_OUTER_BOUND('',#309,.T.);
#311=CARTESIAN_POINT('',(5.587999999999999,1.752600000000000,0.0));
#312=VERTEX_POINT('',#311);
#313=CARTESIAN_POINT('',(5.587999999999999,0.0,0.0));
#314=DIRECTION('',(1.0,0.0,0.0));
#315=DIRECTION('',(0.0,1.0,0.0));
#316=AXIS2_PLACEMENT_3D('',#313,#314,#315);
#317=CIRCLE('',#316,1.752600000000000);
#318=EDGE_CURVE('',#312,#312,#317,.T.);
#319=ORIENTED_EDGE('',*,*,#318,.F.);
#320=EDGE_LOOP('',(#319));
#321=FACE_BOUND('',#320,.T.);
#322=ADVANCED_FACE('',(#310,#321),#307,.T.);
#323=CARTESIAN_POINT('',(7.886699999999999,0.0,0.0));
#324=DIRECTION('',(1.0,0.0,0.0));
#325=DIRECTION('',(0.0,1.0,0.0));
#326=AXIS2_PLACEMENT_3D('',#323,#324,#325);
#327=CYLINDRICAL_SURFACE('',#326,1.752600000000000);
#328=CARTESIAN_POINT('',(10.185400000000000,1.752600000000000,0.0));
#329=VERTEX_POINT('',#328);
#330=CARTESIAN_POINT('',(10.185400000000000,0.0,0.0));
#331=DIRECTION('',(1.0,0.0,0.0));
#332=DIRECTION('',(0.0,1.0,0.0));
#333=AXIS2_PLACEMENT_3D('',#330,#331,#332);
#334=CIRCLE('',#333,1.752600000000000);
#335=EDGE_CURVE('',#329,#329,#334,.T.);
#336=ORIENTED_EDGE('',*,*,#335,.F.);
#337=EDGE_LOOP('',(#336));
#338=FACE_OUTER_BOUND('',#337,.T.);
#339=ORIENTED_EDGE('',*,*,#318,.T.);
#340=EDGE_LOOP('',(#339));
#341=FACE_BOUND('',#340,.T.);
#342=ADVANCED_FACE('',(#338,#341),#327,.T.);
#343=CARTESIAN_POINT('',(10.426700000000000,0.0,0.0));
#344=DIRECTION('',(-1.0,0.0,0.0));
#345=DIRECTION('',(0.0,1.0,0.0));
#346=AXIS2_PLACEMENT_3D('',#343,#344,#345);
#347=CONICAL_SURFACE('',#346,1.511300000000000,45.000000000000043);
#348=ORIENTED_EDGE('',*,*,#167,.F.);
#349=EDGE_LOOP('',(#348));
#350=FACE_OUTER_BOUND('',#349,.T.);
#351=ORIENTED_EDGE('',*,*,#335,.T.);
#352=EDGE_LOOP('',(#351));
#353=FACE_BOUND('',#352,.T.);
#354=ADVANCED_FACE('',(#350,#353),#347,.T.);
#355=CARTESIAN_POINT('',(1.388456E-016,1.460500000000004,0.0));
#356=DIRECTION('',(-1.0,0.0,0.0));
#357=DIRECTION('',(0.0,0.0,1.0));
#358=AXIS2_PLACEMENT_3D('',#355,#356,#357);
#359=PLANE('',#358);
#360=ORIENTED_EDGE('',*,*,#258,.F.);
#361=EDGE_LOOP('',(#360));
#362=FACE_OUTER_BOUND('',#361,.T.);
#363=ORIENTED_EDGE('',*,*,#187,.T.);
#364=EDGE_LOOP('',(#363));
#365=FACE_BOUND('',#364,.T.);
#366=ADVANCED_FACE('',(#362,#365),#359,.T.);
#367=CLOSED_SHELL('',(#134,#154,#174,#202,#222,#234,#262,#282,#302,#322,#342,#354,#366));
#368=MANIFOLD_SOLID_BREP('Volumenk\S\vrper1',#367);
#369=COLOUR_RGB('',0.776470601558685,0.741176486015320,0.647058844566345);
#370=FILL_AREA_STYLE_COLOUR('',#369);
#371=FILL_AREA_STYLE('',(#370));
#372=SURFACE_STYLE_FILL_AREA(#371);
#373=SURFACE_SIDE_STYLE('',(#372));
#374=SURFACE_STYLE_USAGE(.BOTH.,#373);
#375=PRESENTATION_STYLE_ASSIGNMENT((#374));
#376=STYLED_ITEM('',(#375),#282);
#377=MECHANICAL_DESIGN_GEOMETRIC_PRESENTATION_REPRESENTATION('',(#376,#385,#685),#106);
#378=COLOUR_RGB('Beige (hell)',0.780391991138458,0.745097994804382,0.647059023380280);
#379=FILL_AREA_STYLE_COLOUR('Beige (hell)',#378);
#380=FILL_AREA_STYLE('Beige (hell)',(#379));
#381=SURFACE_STYLE_FILL_AREA(#380);
#382=SURFACE_SIDE_STYLE('Beige (hell)',(#381));
#383=SURFACE_STYLE_USAGE(.BOTH.,#382);
#384=PRESENTATION_STYLE_ASSIGNMENT((#383));
#385=STYLED_ITEM('',(#384),#368);
#386=ADVANCED_BREP_SHAPE_REPRESENTATION('ABSR',(#368),#75);
#387=SHAPE_REPRESENTATION_RELATIONSHIP('SRR','None',#386,#80);
#388=AXIS2_PLACEMENT_3D('',#389,#390,#391);
#389=CARTESIAN_POINT('',(0.0,0.0,0.0));
#390=DIRECTION('',(0.0,0.0,1.0));
#391=DIRECTION('',(1.0,0.0,0.0));
#392=NEXT_ASSEMBLY_USAGE_OCCURRENCE('ZNF.5FPK-N Nut','ZNF.5FPK-N Nut','ZNF.5FPK-N Nut',#12,#51,'ZNF.5FPK-N Nut');
#393=PRODUCT_DEFINITION_SHAPE('ZNF.5FPK-N Nut','ZNF.5FPK-N Nut',#392);
#394=ITEM_DEFINED_TRANSFORMATION('ZNF.5FPK-N Nut','ZNF.5FPK-N Nut',#76,#388);
#398=(REPRESENTATION_RELATIONSHIP('ZNF.5FPK-N Nut','ZNF.5FPK-N Nut',#80,#41)REPRESENTATION_RELATIONSHIP_WITH_TRANSFORMATION(#394)SHAPE_REPRESENTATION_RELATIONSHIP());
#399=CONTEXT_DEPENDENT_SHAPE_REPRESENTATION(#398,#393);
#400=APPLICATION_CONTEXT('automotive design');
#401=APPLICATION_PROTOCOL_DEFINITION('International Standard','automotive_design',2001,#400);
#402=PRODUCT_CONTEXT('',#400,'mechanical');
#403=PRODUCT('313179','313179',$,(#402));
#404=PRODUCT_RELATED_PRODUCT_CATEGORY('part',$,(#403));
#405=PRODUCT_DEFINITION_FORMATION('',$,#403);
#406=PRODUCT_DEFINITION_CONTEXT('part definition',#400,'design');
#407=PRODUCT_DEFINITION('',$,#405,#406);
#413=(NAMED_UNIT(*)PLANE_ANGLE_UNIT()SI_UNIT($,.RADIAN.));
#414=DIMENSIONAL_EXPONENTS(0.0,0.0,0.0,0.0,0.0,0.0,0.0);
#415=PLANE_ANGLE_MEASURE_WITH_UNIT(PLANE_ANGLE_MEASURE(0.017453292500000),#413);
#419=(CONVERSION_BASED_UNIT('DEGREE',#415)NAMED_UNIT(#414)PLANE_ANGLE_UNIT());
#423=(NAMED_UNIT(*)SI_UNIT($,.STERADIAN.)SOLID_ANGLE_UNIT());
#427=(LENGTH_UNIT()NAMED_UNIT(*)SI_UNIT(.MILLI.,.METRE.));
#429=UNCERTAINTY_MEASURE_WITH_UNIT(LENGTH_MEASURE(0.010000000000000),#427,'DISTANCE_ACCURACY_VALUE','');
#431=(GEOMETRIC_REPRESENTATION_CONTEXT(3)GLOBAL_UNCERTAINTY_ASSIGNED_CONTEXT((#429))GLOBAL_UNIT_ASSIGNED_CONTEXT((#419,#423,#427))REPRESENTATION_CONTEXT('None','None'));
#432=AXIS2_PLACEMENT_3D('',#433,#434,#435);
#433=CARTESIAN_POINT('',(0.0,0.0,0.0));
#434=DIRECTION('',(0.0,0.0,1.0));
#435=DIRECTION('',(1.0,0.0,0.0));
#436=SHAPE_REPRESENTATION('',(#432),#431);
#437=PRODUCT_DEFINITION_SHAPE('','',#407);
#438=SHAPE_DEFINITION_REPRESENTATION(#437,#436);
#444=(NAMED_UNIT(*)PLANE_ANGLE_UNIT()SI_UNIT($,.RADIAN.));
#445=DIMENSIONAL_EXPONENTS(0.0,0.0,0.0,0.0,0.0,0.0,0.0);
#446=PLANE_ANGLE_MEASURE_WITH_UNIT(PLANE_ANGLE_MEASURE(0.017453292500000),#444);
#450=(CONVERSION_BASED_UNIT('DEGREE',#446)NAMED_UNIT(#445)PLANE_ANGLE_UNIT());
#454=(NAMED_UNIT(*)SI_UNIT($,.STERADIAN.)SOLID_ANGLE_UNIT());
#458=(LENGTH_UNIT()NAMED_UNIT(*)SI_UNIT(.MILLI.,.METRE.));
#460=UNCERTAINTY_MEASURE_WITH_UNIT(LENGTH_MEASURE(0.000001000000000),#458,'DISTANCE_ACCURACY_VALUE','');
#462=(GEOMETRIC_REPRESENTATION_CONTEXT(3)GLOBAL_UNCERTAINTY_ASSIGNED_CONTEXT((#460))GLOBAL_UNIT_ASSIGNED_CONTEXT((#450,#454,#458))REPRESENTATION_CONTEXT('','3D'));
#463=CARTESIAN_POINT('',(0.120000000000000,0.0,0.0));
#464=DIRECTION('',(1.0,0.0,0.0));
#465=DIRECTION('',(0.0,0.0,-1.0));
#466=AXIS2_PLACEMENT_3D('',#463,#464,#465);
#467=TOROIDAL_SURFACE('',#466,0.692800000000000,0.120000000000000);
#468=CARTESIAN_POINT('',(0.0,0.692800000000000,0.0));
#469=VERTEX_POINT('',#468);
#470=CARTESIAN_POINT('',(0.0,0.0,0.0));
#471=DIRECTION('',(1.0,0.0,0.0));
#472=DIRECTION('',(0.0,-1.0,0.0));
#473=AXIS2_PLACEMENT_3D('',#470,#471,#472);
#474=CIRCLE('',#473,0.692800000000000);
#475=EDGE_CURVE('',#469,#469,#474,.T.);
#476=ORIENTED_EDGE('',*,*,#475,.T.);
#477=EDGE_LOOP('',(#476));
#478=FACE_OUTER_BOUND('',#477,.T.);
#479=CARTESIAN_POINT('',(0.120000000000000,0.812800000000000,-1.990786E-016));
#480=VERTEX_POINT('',#479);
#481=CARTESIAN_POINT('',(0.120000000000000,0.0,0.0));
#482=DIRECTION('',(-1.0,0.0,0.0));
#483=DIRECTION('',(0.0,-1.0,0.0));
#484=AXIS2_PLACEMENT_3D('',#481,#482,#483);
#485=CIRCLE('',#484,0.812800000000000);
#486=EDGE_CURVE('',#480,#480,#485,.T.);
#487=ORIENTED_EDGE('',*,*,#486,.T.);
#488=EDGE_LOOP('',(#487));
#489=FACE_BOUND('',#488,.T.);
#490=ADVANCED_FACE('',(#478,#489),#467,.T.);
#491=CARTESIAN_POINT('',(0.317500000000000,0.0,0.0));
#492=DIRECTION('',(1.0,0.0,0.0));
#493=DIRECTION('',(0.0,1.0,0.0));
#494=AXIS2_PLACEMENT_3D('',#491,#492,#493);
#495=CYLINDRICAL_SURFACE('',#494,0.812800000000000);
#496=CARTESIAN_POINT('',(0.635000000000000,0.812800000000000,0.0));
#497=VERTEX_POINT('',#496);
#498=CARTESIAN_POINT('',(0.635000000000000,0.0,0.0));
#499=DIRECTION('',(1.0,0.0,0.0));
#500=DIRECTION('',(0.0,1.0,0.0));
#501=AXIS2_PLACEMENT_3D('',#498,#499,#500);
#502=CIRCLE('',#501,0.812800000000000);
#503=EDGE_CURVE('',#497,#497,#502,.T.);
#504=ORIENTED_EDGE('',*,*,#503,.F.);
#505=EDGE_LOOP('',(#504));
#506=FACE_OUTER_BOUND('',#505,.T.);
#507=ORIENTED_EDGE('',*,*,#486,.F.);
#508=EDGE_LOOP('',(#507));
#509=FACE_BOUND('',#508,.T.);
#510=ADVANCED_FACE('',(#506,#509),#495,.T.);
#511=CARTESIAN_POINT('',(0.0,0.406400000000000,0.0));
#512=DIRECTION('',(-1.0,0.0,0.0));
#513=DIRECTION('',(0.0,0.0,1.0));
#514=AXIS2_PLACEMENT_3D('',#511,#512,#513);
#515=PLANE('',#514);
#516=ORIENTED_EDGE('',*,*,#475,.F.);
#517=EDGE_LOOP('',(#516));
#518=FACE_OUTER_BOUND('',#517,.T.);
#519=CARTESIAN_POINT('',(0.0,-0.685800000000000,0.0));
#520=VERTEX_POINT('',#519);
#521=CARTESIAN_POINT('',(0.0,0.0,0.0));
#522=DIRECTION('',(1.0,0.0,0.0));
#523=DIRECTION('',(0.0,-1.0,0.0));
#524=AXIS2_PLACEMENT_3D('',#521,#522,#523);
#525=CIRCLE('',#524,0.685800000000000);
#526=EDGE_CURVE('',#520,#520,#525,.T.);
#527=ORIENTED_EDGE('',*,*,#526,.T.);
#528=EDGE_LOOP('',(#527));
#529=FACE_BOUND('',#528,.T.);
#530=ADVANCED_FACE('',(#518,#529),#515,.T.);
#531=CARTESIAN_POINT('',(0.225469713875279,0.0,0.0));
#532=DIRECTION('',(-1.0,0.0,0.0));
#533=DIRECTION('',(0.0,-1.0,0.0));
#534=AXIS2_PLACEMENT_3D('',#531,#532,#533);
#535=CONICAL_SURFACE('',#534,0.555625000000000,30.000000000000004);
#536=ORIENTED_EDGE('',*,*,#526,.F.);
#537=EDGE_LOOP('',(#536));
#538=FACE_OUTER_BOUND('',#537,.T.);
#539=CARTESIAN_POINT('',(0.450939427750557,-0.425450000000000,0.0));
#540=VERTEX_POINT('',#539);
#541=CARTESIAN_POINT('',(0.450939427750556,0.0,0.0));
#542=DIRECTION('',(-1.0,0.0,0.0));
#543=DIRECTION('',(0.0,-1.0,0.0));
#544=AXIS2_PLACEMENT_3D('',#541,#542,#543);
#545=CIRCLE('',#544,0.425450000000000);
#546=EDGE_CURVE('',#540,#540,#545,.T.);
#547=ORIENTED_EDGE('',*,*,#546,.F.);
#548=EDGE_LOOP('',(#547));
#549=FACE_BOUND('',#548,.T.);
#550=ADVANCED_FACE('',(#538,#549),#535,.F.);
#551=CARTESIAN_POINT('',(6.430766361795461,0.0,0.0));
#552=DIRECTION('',(-1.0,0.0,0.0));
#553=DIRECTION('',(0.0,-1.0,0.0));
#554=AXIS2_PLACEMENT_3D('',#551,#552,#553);
#555=CYLINDRICAL_SURFACE('',#554,0.425450000000000);
#556=CARTESIAN_POINT('',(5.333999999999999,0.425450000000000,-5.210260E-017));
#557=VERTEX_POINT('',#556);
#558=CARTESIAN_POINT('',(5.333999999999999,0.0,0.0));
#559=DIRECTION('',(-1.0,0.0,0.0));
#560=DIRECTION('',(0.0,-1.0,0.0));
#561=AXIS2_PLACEMENT_3D('',#558,#559,#560);
#562=CIRCLE('',#561,0.425450000000000);
#563=EDGE_CURVE('',#557,#557,#562,.T.);
#564=ORIENTED_EDGE('',*,*,#563,.F.);
#565=EDGE_LOOP('',(#564));
#566=FACE_OUTER_BOUND('',#565,.T.);
#567=ORIENTED_EDGE('',*,*,#546,.T.);
#568=EDGE_LOOP('',(#567));
#569=FACE_BOUND('',#568,.T.);
#570=ADVANCED_FACE('',(#566,#569),#555,.F.);
#571=CARTESIAN_POINT('',(0.635000000000000,0.774700000000000,0.0));
#572=DIRECTION('',(1.0,0.0,0.0));
#573=DIRECTION('',(0.0,0.0,-1.0));
#574=AXIS2_PLACEMENT_3D('',#571,#572,#573);
#575=PLANE('',#574);
#576=ORIENTED_EDGE('',*,*,#503,.T.);
#577=EDGE_LOOP('',(#576));
#578=FACE_OUTER_BOUND('',#577,.T.);
#579=CARTESIAN_POINT('',(0.635000000000000,0.736600000000001,0.0));
#580=VERTEX_POINT('',#579);
#581=CARTESIAN_POINT('',(0.635000000000000,0.0,0.0));
#582=DIRECTION('',(1.0,0.0,0.0));
#583=DIRECTION('',(0.0,1.0,0.0));
#584=AXIS2_PLACEMENT_3D('',#581,#582,#583);
#585=CIRCLE('',#584,0.736600000000001);
#586=EDGE_CURVE('',#580,#580,#585,.T.);
#587=ORIENTED_EDGE('',*,*,#586,.F.);
#588=EDGE_LOOP('',(#587));
#589=FACE_BOUND('',#588,.T.);
#590=ADVANCED_FACE('',(#578,#589),#575,.T.);
#591=CARTESIAN_POINT('',(1.079500000000000,0.0,0.0));
#592=DIRECTION('',(1.0,0.0,0.0));
#593=DIRECTION('',(0.0,1.0,0.0));
#594=AXIS2_PLACEMENT_3D('',#591,#592,#593);
#595=CYLINDRICAL_SURFACE('',#594,0.736600000000001);
#596=CARTESIAN_POINT('',(1.524000000000000,0.736600000000001,0.0));
#597=VERTEX_POINT('',#596);
#598=CARTESIAN_POINT('',(1.524000000000000,0.0,0.0));
#599=DIRECTION('',(1.0,0.0,0.0));
#600=DIRECTION('',(0.0,1.0,0.0));
#601=AXIS2_PLACEMENT_3D('',#598,#599,#600);
#602=CIRCLE('',#601,0.736600000000001);
#603=EDGE_CURVE('',#597,#597,#602,.T.);
#604=ORIENTED_EDGE('',*,*,#603,.F.);
#605=EDGE_LOOP('',(#604));
#606=FACE_OUTER_BOUND('',#605,.T.);
#607=ORIENTED_EDGE('',*,*,#586,.T.);
#608=EDGE_LOOP('',(#607));
#609=FACE_BOUND('',#608,.T.);
#610=ADVANCED_FACE('',(#606,#609),#595,.T.);
#611=CARTESIAN_POINT('',(1.524000000000000,1.003300000000001,0.0));
#612=DIRECTION('',(-1.0,0.0,0.0));
#613=DIRECTION('',(0.0,0.0,1.0));
#614=AXIS2_PLACEMENT_3D('',#611,#612,#613);
#615=PLANE('',#614);
#616=CARTESIAN_POINT('',(1.524000000000000,1.270000000000001,0.0));
#617=VERTEX_POINT('',#616);
#618=CARTESIAN_POINT('',(1.524000000000000,0.0,0.0));
#619=DIRECTION('',(1.0,0.0,0.0));
#620=DIRECTION('',(0.0,1.0,0.0));
#621=AXIS2_PLACEMENT_3D('',#618,#619,#620);
#622=CIRCLE('',#621,1.270000000000001);
#623=EDGE_CURVE('',#617,#617,#622,.T.);
#624=ORIENTED_EDGE('',*,*,#623,.F.);
#625=EDGE_LOOP('',(#624));
#626=FACE_OUTER_BOUND('',#625,.T.);
#627=ORIENTED_EDGE('',*,*,#603,.T.);
#628=EDGE_LOOP('',(#627));
#629=FACE_BOUND('',#628,.T.);
#630=ADVANCED_FACE('',(#626,#629),#615,.T.);
#631=CARTESIAN_POINT('',(1.916232050906254,0.0,0.0));
#632=DIRECTION('',(1.0,0.0,0.0));
#633=DIRECTION('',(0.0,1.0,0.0));
#634=AXIS2_PLACEMENT_3D('',#631,#632,#633);
#635=CYLINDRICAL_SURFACE('',#634,1.270000000000001);
#636=CARTESIAN_POINT('',(2.308464101812509,1.270000000000001,0.0));
#637=VERTEX_POINT('',#636);
#638=CARTESIAN_POINT('',(2.308464101812509,0.0,0.0));
#639=DIRECTION('',(1.0,0.0,0.0));
#640=DIRECTION('',(0.0,1.0,0.0));
#641=AXIS2_PLACEMENT_3D('',#638,#639,#640);
#642=CIRCLE('',#641,1.270000000000001);
#643=EDGE_CURVE('',#637,#637,#642,.T.);
#644=ORIENTED_EDGE('',*,*,#643,.F.);
#645=EDGE_LOOP('',(#644));
#646=FACE_OUTER_BOUND('',#645,.T.);
#647=ORIENTED_EDGE('',*,*,#623,.T.);
#648=EDGE_LOOP('',(#647));
#649=FACE_BOUND('',#648,.T.);
#650=ADVANCED_FACE('',(#646,#649),#635,.T.);
#651=CARTESIAN_POINT('',(3.821232050906254,0.0,0.0));
#652=DIRECTION('',(-1.0,0.0,0.0));
#653=DIRECTION('',(0.0,1.0,0.0));
#654=AXIS2_PLACEMENT_3D('',#651,#652,#653);
#655=CONICAL_SURFACE('',#654,0.920750000000001,12.999999999999977);
#656=CARTESIAN_POINT('',(5.333999999999999,0.571500000000001,0.0));
#657=VERTEX_POINT('',#656);
#658=CARTESIAN_POINT('',(5.333999999999999,0.0,0.0));
#659=DIRECTION('',(1.0,0.0,0.0));
#660=DIRECTION('',(0.0,1.0,0.0));
#661=AXIS2_PLACEMENT_3D('',#658,#659,#660);
#662=CIRCLE('',#661,0.571500000000001);
#663=EDGE_CURVE('',#657,#657,#662,.T.);
#664=ORIENTED_EDGE('',*,*,#663,.F.);
#665=EDGE_LOOP('',(#664));
#666=FACE_OUTER_BOUND('',#665,.T.);
#667=ORIENTED_EDGE('',*,*,#643,.T.);
#668=EDGE_LOOP('',(#667));
#669=FACE_BOUND('',#668,.T.);
#670=ADVANCED_FACE('',(#666,#669),#655,.T.);
#671=CARTESIAN_POINT('',(5.333999999999999,0.285750000000001,0.0));
#672=DIRECTION('',(1.0,0.0,0.0));
#673=DIRECTION('',(0.0,0.0,-1.0));
#674=AXIS2_PLACEMENT_3D('',#671,#672,#673);
#675=PLANE('',#674);
#676=ORIENTED_EDGE('',*,*,#663,.T.);
#677=EDGE_LOOP('',(#676));
#678=FACE_OUTER_BOUND('',#677,.T.);
#679=ORIENTED_EDGE('',*,*,#563,.T.);
#680=EDGE_LOOP('',(#679));
#681=FACE_BOUND('',#680,.T.);
#682=ADVANCED_FACE('',(#678,#681),#675,.T.);
#683=CLOSED_SHELL('',(#490,#510,#530,#550,#570,#590,#610,#630,#650,#670,#682));
#684=MANIFOLD_SOLID_BREP('Volumenk\S\vrper1',#683);
#685=STYLED_ITEM('',(#384),#684);
#686=ADVANCED_BREP_SHAPE_REPRESENTATION('ABSR',(#684),#431);
#687=SHAPE_REPRESENTATION_RELATIONSHIP('SRR','None',#686,#436);
#688=AXIS2_PLACEMENT_3D('',#689,#690,#691);
#689=CARTESIAN_POINT('',(9.144000000000002,5.083644E-035,0.0));
#690=DIRECTION('',(1.211499E-016,-0.994617316996304,0.103616565910443));
#691=DIRECTION('',(1.0,1.218055E-016,7.087422E-032));
#692=NEXT_ASSEMBLY_USAGE_OCCURRENCE('ZNF.5PK-F Ferrule','ZNF.5PK-F Ferrule','ZNF.5PK-F Ferrule',#12,#407,'ZNF.5PK-F Ferrule');
#693=PRODUCT_DEFINITION_SHAPE('ZNF.5PK-F Ferrule','ZNF.5PK-F Ferrule',#692);
#694=ITEM_DEFINED_TRANSFORMATION('ZNF.5PK-F Ferrule','ZNF.5PK-F Ferrule',#432,#688);
#698=(REPRESENTATION_RELATIONSHIP('ZNF.5PK-F Ferrule','ZNF.5PK-F Ferrule',#436,#41)REPRESENTATION_RELATIONSHIP_WITH_TRANSFORMATION(#694)SHAPE_REPRESENTATION_RELATIONSHIP());
#699=CONTEXT_DEPENDENT_SHAPE_REPRESENTATION(#698,#693);
ENDSEC;
END-ISO-10303-21;
