ISO-10303-21;
HEADER;
/****************************************************************
 * Generated by software with PDE/Lib inside                    *
 * PDElib Version v51a, created Thu 12/14/2006                  *
 * International Technegroup Inc. (www.iti-oh.com)              *
 ****************************************************************/
FILE_DESCRIPTION((''),'2;1');
FILE_NAME('\\\\VICISRV2\\am\\Vault,D-CL_VICI\\Tech-Support\\Dimension Fittings\\Step Dateien\\310102-ZF1S6 Ferrule.stp','2008-08-07T17:12:07',('Franzp'),(''),'Autodesk Inventor 2008','Autodesk Inventor 2008','');
FILE_SCHEMA(('AUTOMOTIVE_DESIGN { 1 0 10303 214 1 1 1 1 }'));
ENDSEC;
DATA;
#5=APPLICATION_CONTEXT('automotive design');
#6=APPLICATION_PROTOCOL_DEFINITION('International Standard','automotive_design',2001,#5);
#7=PRODUCT_CONTEXT('',#5,'mechanical');
#8=PRODUCT('310102','310102',$,(#7));
#9=PRODUCT_RELATED_PRODUCT_CATEGORY('part',$,(#8));
#10=PRODUCT_DEFINITION_FORMATION('',$,#8);
#11=PRODUCT_DEFINITION_CONTEXT('part definition',#5,'design');
#12=PRODUCT_DEFINITION('',$,#10,#11);
#18=(NAMED_UNIT(*)PLANE_ANGLE_UNIT()SI_UNIT($,.RADIAN.));
#19=DIMENSIONAL_EXPONENTS(0.0,0.0,0.0,0.0,0.0,0.0,0.0);
#20=PLANE_ANGLE_MEASURE_WITH_UNIT(PLANE_ANGLE_MEASURE(0.017453292500000),#18);
#24=(CONVERSION_BASED_UNIT('DEGREE',#20)NAMED_UNIT(#19)PLANE_ANGLE_UNIT());
#28=(NAMED_UNIT(*)SI_UNIT($,.STERADIAN.)SOLID_ANGLE_UNIT());
#32=(LENGTH_UNIT()NAMED_UNIT(*)SI_UNIT(.MILLI.,.METRE.));
#34=UNCERTAINTY_MEASURE_WITH_UNIT(LENGTH_MEASURE(0.010000000000000),#32,'DISTANCE_ACCURACY_VALUE','');
#36=(GEOMETRIC_REPRESENTATION_CONTEXT(3)GLOBAL_UNCERTAINTY_ASSIGNED_CONTEXT((#34))GLOBAL_UNIT_ASSIGNED_CONTEXT((#24,#28,#32))REPRESENTATION_CONTEXT('None','None'));
#37=AXIS2_PLACEMENT_3D('',#38,#39,#40);
#38=CARTESIAN_POINT('',(0.0,0.0,0.0));
#39=DIRECTION('',(0.0,0.0,1.0));
#40=DIRECTION('',(1.0,0.0,0.0));
#41=SHAPE_REPRESENTATION('',(#37),#36);
#42=PRODUCT_DEFINITION_SHAPE('','',#12);
#43=SHAPE_DEFINITION_REPRESENTATION(#42,#41);
#49=(NAMED_UNIT(*)PLANE_ANGLE_UNIT()SI_UNIT($,.RADIAN.));
#50=DIMENSIONAL_EXPONENTS(0.0,0.0,0.0,0.0,0.0,0.0,0.0);
#51=PLANE_ANGLE_MEASURE_WITH_UNIT(PLANE_ANGLE_MEASURE(0.017453292500000),#49);
#55=(CONVERSION_BASED_UNIT('DEGREE',#51)NAMED_UNIT(#50)PLANE_ANGLE_UNIT());
#59=(NAMED_UNIT(*)SI_UNIT($,.STERADIAN.)SOLID_ANGLE_UNIT());
#63=(LENGTH_UNIT()NAMED_UNIT(*)SI_UNIT(.MILLI.,.METRE.));
#65=UNCERTAINTY_MEASURE_WITH_UNIT(LENGTH_MEASURE(0.000001000000000),#63,'DISTANCE_ACCURACY_VALUE','');
#67=(GEOMETRIC_REPRESENTATION_CONTEXT(3)GLOBAL_UNCERTAINTY_ASSIGNED_CONTEXT((#65))GLOBAL_UNIT_ASSIGNED_CONTEXT((#55,#59,#63))REPRESENTATION_CONTEXT('','3D'));
#68=CARTESIAN_POINT('',(4.625000000000000,8.495707E-016,0.0));
#69=DIRECTION('',(1.0,1.836910E-016,0.0));
#70=DIRECTION('',(0.0,-1.0,0.0));
#71=AXIS2_PLACEMENT_3D('',#68,#69,#70);
#72=CONICAL_SURFACE('',#71,0.900500000000000,44.999999999999773);
#73=CARTESIAN_POINT('',(4.550000000000000,0.825500000000001,-1.010913E-016));
#74=VERTEX_POINT('',#73);
#75=CARTESIAN_POINT('',(4.550000000000000,8.357938E-016,0.0));
#76=DIRECTION('',(-1.0,0.0,0.0));
#77=DIRECTION('',(0.0,-1.0,0.0));
#78=AXIS2_PLACEMENT_3D('',#75,#76,#77);
#79=CIRCLE('',#78,0.825500000000000);
#80=EDGE_CURVE('',#74,#74,#79,.T.);
#81=ORIENTED_EDGE('',*,*,#80,.T.);
#82=EDGE_LOOP('',(#81));
#83=FACE_OUTER_BOUND('',#82,.T.);
#84=CARTESIAN_POINT('',(4.700000000000001,0.975500000000001,1.194603E-016));
#85=VERTEX_POINT('',#84);
#86=CARTESIAN_POINT('',(4.700000000000001,8.633475E-016,0.0));
#87=DIRECTION('',(1.0,0.0,0.0));
#88=DIRECTION('',(0.0,-1.0,0.0));
#89=AXIS2_PLACEMENT_3D('',#86,#87,#88);
#90=CIRCLE('',#89,0.975500000000000);
#91=EDGE_CURVE('',#85,#85,#90,.T.);
#92=ORIENTED_EDGE('',*,*,#91,.T.);
#93=EDGE_LOOP('',(#92));
#94=FACE_BOUND('',#93,.T.);
#95=ADVANCED_FACE('',(#83,#94),#72,.F.);
#96=CARTESIAN_POINT('',(4.550000000000000,-0.825499999999999,-1.010913E-016));
#97=CARTESIAN_POINT('',(-4.440892E-016,-0.825500000000000,-1.010913E-016));
#98=CARTESIAN_POINT('',(4.550000000000000,-0.825499999999999,-0.825500000000000));
#99=CARTESIAN_POINT('',(-4.440892E-016,-0.825500000000000,-0.825500000000000));
#100=CARTESIAN_POINT('',(4.550000000000000,9.368851E-016,-0.825500000000000));
#101=CARTESIAN_POINT('',(-4.440892E-016,1.010913E-016,-0.825500000000000));
#102=CARTESIAN_POINT('',(4.550000000000000,0.825500000000001,-0.825500000000000));
#103=CARTESIAN_POINT('',(-4.440892E-016,0.825500000000000,-0.825500000000000));
#104=CARTESIAN_POINT('',(4.550000000000000,0.825500000000001,1.010913E-016));
#105=CARTESIAN_POINT('',(-4.440892E-016,0.825500000000000,1.010913E-016));
#106=CARTESIAN_POINT('',(4.550000000000000,0.825500000000001,0.825500000000000));
#107=CARTESIAN_POINT('',(-4.440892E-016,0.825500000000000,0.825500000000000));
#108=CARTESIAN_POINT('',(4.550000000000000,7.347026E-016,0.825500000000000));
#109=CARTESIAN_POINT('',(-4.440892E-016,-1.010913E-016,0.825500000000000));
#110=CARTESIAN_POINT('',(4.550000000000000,-0.825499999999999,0.825500000000000));
#111=CARTESIAN_POINT('',(-4.440892E-016,-0.825500000000000,0.825500000000000));
#112=CARTESIAN_POINT('',(4.550000000000000,-0.825499999999999,-1.010913E-016));
#113=CARTESIAN_POINT('',(-4.440892E-016,-0.825500000000000,-1.010913E-016));
#121=(BOUNDED_SURFACE()B_SPLINE_SURFACE(1,2,((#96,#98,#100,#102,#104,#106,#108,#110,#112),(#97,#99,#101,#103,#105,#107,#109,#111,#113)),.UNSPECIFIED.,.F.,.T.,.U.)B_SPLINE_SURFACE_WITH_KNOTS((2,2),(3,2,2,2,3),(-8.211901732923080,-2.700090709301033),(0.0,1.296692367769187,2.593384735538375,3.890077103307562,5.186769471076749),.UNSPECIFIED.)GEOMETRIC_REPRESENTATION_ITEM()RATIONAL_B_SPLINE_SURFACE(((1.0,0.707106781186548,1.0,0.707106781186548,1.0,0.707106781186548,1.0,0.707106781186548,1.0),(1.0,0.707106781186548,1.0,0.707106781186548,1.0,0.707106781186548,1.0,0.707106781186548,1.0)))REPRESENTATION_ITEM('')SURFACE());
#122=CARTESIAN_POINT('',(1.516369E-016,-0.825500000000000,-1.010913E-016));
#123=VERTEX_POINT('',#122);
#124=CARTESIAN_POINT('',(0.0,6.162976E-032,0.0));
#125=DIRECTION('',(1.0,0.0,0.0));
#126=DIRECTION('',(0.0,1.0,0.0));
#127=AXIS2_PLACEMENT_3D('',#124,#125,#126);
#128=CIRCLE('',#127,0.825500000000000);
#129=EDGE_CURVE('',#123,#123,#128,.T.);
#130=ORIENTED_EDGE('',*,*,#129,.F.);
#131=EDGE_LOOP('',(#130));
#132=FACE_OUTER_BOUND('',#131,.T.);
#133=ORIENTED_EDGE('',*,*,#80,.F.);
#134=EDGE_LOOP('',(#133));
#135=FACE_BOUND('',#134,.T.);
#136=ADVANCED_FACE('',(#132,#135),#121,.F.);
#137=CARTESIAN_POINT('',(4.700000000000001,0.900000000000001,0.0));
#138=DIRECTION('',(1.0,0.0,0.0));
#139=DIRECTION('',(0.0,0.0,-1.0));
#140=AXIS2_PLACEMENT_3D('',#137,#138,#139);
#141=PLANE('',#140);
#142=CARTESIAN_POINT('',(4.700000000000001,1.400000000000001,-1.714449E-016));
#143=VERTEX_POINT('',#142);
#144=CARTESIAN_POINT('',(4.700000000000001,8.633475E-016,0.0));
#145=DIRECTION('',(-1.0,0.0,0.0));
#146=DIRECTION('',(0.0,-1.0,0.0));
#147=AXIS2_PLACEMENT_3D('',#144,#145,#146);
#148=CIRCLE('',#147,1.400000000000000);
#149=EDGE_CURVE('',#143,#143,#148,.T.);
#150=ORIENTED_EDGE('',*,*,#149,.F.);
#151=EDGE_LOOP('',(#150));
#152=FACE_OUTER_BOUND('',#151,.T.);
#153=ORIENTED_EDGE('',*,*,#91,.F.);
#154=EDGE_LOOP('',(#153));
#155=FACE_BOUND('',#154,.T.);
#156=ADVANCED_FACE('',(#152,#155),#141,.T.);
#157=CARTESIAN_POINT('',(0.130000000000000,2.387982E-017,0.0));
#158=DIRECTION('',(1.0,1.836910E-016,0.0));
#159=DIRECTION('',(0.0,0.0,-1.0));
#160=AXIS2_PLACEMENT_3D('',#157,#158,#159);
#161=TOROIDAL_SURFACE('',#160,0.996593330833182,0.130000000000000);
#162=CARTESIAN_POINT('',(-7.898177E-017,0.996593330833182,0.0));
#163=VERTEX_POINT('',#162);
#164=CARTESIAN_POINT('',(1.040834E-016,-3.466674E-032,0.0));
#165=DIRECTION('',(1.0,0.0,0.0));
#166=DIRECTION('',(0.0,-1.0,0.0));
#167=AXIS2_PLACEMENT_3D('',#164,#165,#166);
#168=CIRCLE('',#167,0.996593330833182);
#169=EDGE_CURVE('',#163,#163,#168,.T.);
#170=ORIENTED_EDGE('',*,*,#169,.T.);
#171=EDGE_LOOP('',(#170));
#172=FACE_OUTER_BOUND('',#171,.T.);
#173=CARTESIAN_POINT('',(0.100756362935298,1.123261439255263,-2.751106E-016));
#174=VERTEX_POINT('',#173);
#175=CARTESIAN_POINT('',(0.100756362935298,-6.938894E-017,-1.375553E-016));
#176=DIRECTION('',(-1.0,0.0,0.0));
#177=DIRECTION('',(0.0,-1.0,0.0));
#178=AXIS2_PLACEMENT_3D('',#175,#176,#177);
#179=CIRCLE('',#178,1.123261439255263);
#180=EDGE_CURVE('',#174,#174,#179,.T.);
#181=ORIENTED_EDGE('',*,*,#180,.T.);
#182=EDGE_LOOP('',(#181));
#183=FACE_BOUND('',#182,.T.);
#184=ADVANCED_FACE('',(#172,#183),#161,.T.);
#185=CARTESIAN_POINT('',(1.516016555999453,2.784785E-016,0.0));
#186=DIRECTION('',(1.0,1.836910E-016,0.0));
#187=DIRECTION('',(0.0,1.0,0.0));
#188=AXIS2_PLACEMENT_3D('',#185,#186,#187);
#189=CONICAL_SURFACE('',#188,1.450000000000000,13.000000000000012);
#190=CARTESIAN_POINT('',(3.032033111998906,1.800000000000001,0.0));
#191=VERTEX_POINT('',#190);
#192=CARTESIAN_POINT('',(3.032033111998907,5.569571E-016,0.0));
#193=DIRECTION('',(1.0,0.0,0.0));
#194=DIRECTION('',(0.0,1.0,0.0));
#195=AXIS2_PLACEMENT_3D('',#192,#193,#194);
#196=CIRCLE('',#195,1.800000000000000);
#197=EDGE_CURVE('',#191,#191,#196,.T.);
#198=ORIENTED_EDGE('',*,*,#197,.F.);
#199=EDGE_LOOP('',(#198));
#200=FACE_OUTER_BOUND('',#199,.T.);
#201=ORIENTED_EDGE('',*,*,#180,.F.);
#202=EDGE_LOOP('',(#201));
#203=FACE_BOUND('',#202,.T.);
#204=ADVANCED_FACE('',(#200,#203),#189,.T.);
#205=CARTESIAN_POINT('',(0.0,0.550000000000000,0.0));
#206=DIRECTION('',(-1.0,0.0,0.0));
#207=DIRECTION('',(0.0,0.0,1.0));
#208=AXIS2_PLACEMENT_3D('',#205,#206,#207);
#209=PLANE('',#208);
#210=ORIENTED_EDGE('',*,*,#169,.F.);
#211=EDGE_LOOP('',(#210));
#212=FACE_OUTER_BOUND('',#211,.T.);
#213=ORIENTED_EDGE('',*,*,#129,.T.);
#214=EDGE_LOOP('',(#213));
#215=FACE_BOUND('',#214,.T.);
#216=ADVANCED_FACE('',(#212,#215),#209,.T.);
#217=CARTESIAN_POINT('',(4.500000000000001,8.266093E-016,0.0));
#218=DIRECTION('',(-1.0,-1.836910E-016,0.0));
#219=DIRECTION('',(0.0,-1.0,0.0));
#220=AXIS2_PLACEMENT_3D('',#217,#218,#219);
#221=CONICAL_SURFACE('',#220,1.600000000000000,44.999999999999957);
#222=CARTESIAN_POINT('',(4.300000000000000,1.800000000000001,2.204291E-016));
#223=VERTEX_POINT('',#222);
#224=CARTESIAN_POINT('',(4.300000000000000,7.898711E-016,0.0));
#225=DIRECTION('',(1.0,0.0,0.0));
#226=DIRECTION('',(0.0,-1.0,0.0));
#227=AXIS2_PLACEMENT_3D('',#224,#225,#226);
#228=CIRCLE('',#227,1.800000000000000);
#229=EDGE_CURVE('',#223,#223,#228,.T.);
#230=ORIENTED_EDGE('',*,*,#229,.T.);
#231=EDGE_LOOP('',(#230));
#232=FACE_OUTER_BOUND('',#231,.T.);
#233=ORIENTED_EDGE('',*,*,#149,.T.);
#234=EDGE_LOOP('',(#233));
#235=FACE_BOUND('',#234,.T.);
#236=ADVANCED_FACE('',(#232,#235),#221,.T.);
#237=CARTESIAN_POINT('',(3.866016555999454,7.101523E-016,0.0));
#238=DIRECTION('',(1.0,1.836910E-016,0.0));
#239=DIRECTION('',(0.0,1.0,0.0));
#240=AXIS2_PLACEMENT_3D('',#237,#238,#239);
#241=CYLINDRICAL_SURFACE('',#240,1.800000000000000);
#242=ORIENTED_EDGE('',*,*,#197,.T.);
#243=EDGE_LOOP('',(#242));
#244=FACE_OUTER_BOUND('',#243,.T.);
#245=ORIENTED_EDGE('',*,*,#229,.F.);
#246=EDGE_LOOP('',(#245));
#247=FACE_BOUND('',#246,.T.);
#248=ADVANCED_FACE('',(#244,#247),#241,.T.);
#249=CLOSED_SHELL('',(#95,#136,#156,#184,#204,#216,#236,#248));
#250=MANIFOLD_SOLID_BREP('',#249);
#251=COLOUR_RGB('Metall - Stahl',0.639216005802155,0.639216005802155,0.686275005340576);
#252=FILL_AREA_STYLE_COLOUR('Metall - Stahl',#251);
#253=FILL_AREA_STYLE('Metall - Stahl',(#252));
#254=SURFACE_STYLE_FILL_AREA(#253);
#255=SURFACE_SIDE_STYLE('Metall - Stahl',(#254));
#256=SURFACE_STYLE_USAGE(.BOTH.,#255);
#257=PRESENTATION_STYLE_ASSIGNMENT((#256));
#258=STYLED_ITEM('',(#257),#250);
#259=MECHANICAL_DESIGN_GEOMETRIC_PRESENTATION_REPRESENTATION('',(#258),#36);
#260=ADVANCED_BREP_SHAPE_REPRESENTATION('ABSR',(#250),#36);
#261=SHAPE_REPRESENTATION_RELATIONSHIP('SRR','None',#260,#41);
ENDSEC;
END-ISO-10303-21;
