ISO-10303-21;
HEADER;
/****************************************************************
 * Generated by software with PDE/Lib inside                    *
 * PDElib Version v51a, created Thu 12/14/2006                  *
 * International Technegroup Inc. (www.iti-oh.com)              *
 ****************************************************************/
FILE_DESCRIPTION((''),'2;1');
FILE_NAME('\\\\VICISRV2\\am\\Vault,D-CL_VICI\\Tech-Support\\Dimension Fittings\\Step Dateien\\310126-ZF2S6 Ferrule.stp','2008-08-07T17:13:11',('Franzp'),(''),'Autodesk Inventor 2008','Autodesk Inventor 2008','');
FILE_SCHEMA(('AUTOMOTIVE_DESIGN { 1 0 10303 214 1 1 1 1 }'));
ENDSEC;
DATA;
#5=APPLICATION_CONTEXT('automotive design');
#6=APPLICATION_PROTOCOL_DEFINITION('International Standard','automotive_design',2001,#5);
#7=PRODUCT_CONTEXT('',#5,'mechanical');
#8=PRODUCT('310126','310126',$,(#7));
#9=PRODUCT_RELATED_PRODUCT_CATEGORY('part',$,(#8));
#10=PRODUCT_DEFINITION_FORMATION('',$,#8);
#11=PRODUCT_DEFINITION_CONTEXT('part definition',#5,'design');
#12=PRODUCT_DEFINITION('',$,#10,#11);
#18=(NAMED_UNIT(*)PLANE_ANGLE_UNIT()SI_UNIT($,.RADIAN.));
#19=DIMENSIONAL_EXPONENTS(0.0,0.0,0.0,0.0,0.0,0.0,0.0);
#20=PLANE_ANGLE_MEASURE_WITH_UNIT(PLANE_ANGLE_MEASURE(0.017453292500000),#18);
#24=(CONVERSION_BASED_UNIT('DEGREE',#20)NAMED_UNIT(#19)PLANE_ANGLE_UNIT());
#28=(NAMED_UNIT(*)SI_UNIT($,.STERADIAN.)SOLID_ANGLE_UNIT());
#32=(LENGTH_UNIT()NAMED_UNIT(*)SI_UNIT(.MILLI.,.METRE.));
#34=UNCERTAINTY_MEASURE_WITH_UNIT(LENGTH_MEASURE(0.010000000000000),#32,'DISTANCE_ACCURACY_VALUE','');
#36=(GEOMETRIC_REPRESENTATION_CONTEXT(3)GLOBAL_UNCERTAINTY_ASSIGNED_CONTEXT((#34))GLOBAL_UNIT_ASSIGNED_CONTEXT((#24,#28,#32))REPRESENTATION_CONTEXT('None','None'));
#37=AXIS2_PLACEMENT_3D('',#38,#39,#40);
#38=CARTESIAN_POINT('',(0.0,0.0,0.0));
#39=DIRECTION('',(0.0,0.0,1.0));
#40=DIRECTION('',(1.0,0.0,0.0));
#41=SHAPE_REPRESENTATION('',(#37),#36);
#42=PRODUCT_DEFINITION_SHAPE('','',#12);
#43=SHAPE_DEFINITION_REPRESENTATION(#42,#41);
#49=(NAMED_UNIT(*)PLANE_ANGLE_UNIT()SI_UNIT($,.RADIAN.));
#50=DIMENSIONAL_EXPONENTS(0.0,0.0,0.0,0.0,0.0,0.0,0.0);
#51=PLANE_ANGLE_MEASURE_WITH_UNIT(PLANE_ANGLE_MEASURE(0.017453292500000),#49);
#55=(CONVERSION_BASED_UNIT('DEGREE',#51)NAMED_UNIT(#50)PLANE_ANGLE_UNIT());
#59=(NAMED_UNIT(*)SI_UNIT($,.STERADIAN.)SOLID_ANGLE_UNIT());
#63=(LENGTH_UNIT()NAMED_UNIT(*)SI_UNIT(.MILLI.,.METRE.));
#65=UNCERTAINTY_MEASURE_WITH_UNIT(LENGTH_MEASURE(0.000001000000000),#63,'DISTANCE_ACCURACY_VALUE','');
#67=(GEOMETRIC_REPRESENTATION_CONTEXT(3)GLOBAL_UNCERTAINTY_ASSIGNED_CONTEXT((#65))GLOBAL_UNIT_ASSIGNED_CONTEXT((#55,#59,#63))REPRESENTATION_CONTEXT('','3D'));
#68=CARTESIAN_POINT('',(6.349999999999999,-1.634999999999999,-2.002231E-016));
#69=CARTESIAN_POINT('',(-8.881784E-016,-1.635000000000000,-2.002231E-016));
#70=CARTESIAN_POINT('',(6.349999999999999,-1.634999999999998,-1.635000000000000));
#71=CARTESIAN_POINT('',(-8.881784E-016,-1.634999999999999,-1.635000000000000));
#72=CARTESIAN_POINT('',(6.349999999999999,1.366661E-015,-1.635000000000000));
#73=CARTESIAN_POINT('',(-8.881784E-016,2.002231E-016,-1.635000000000000));
#74=CARTESIAN_POINT('',(6.349999999999999,1.635000000000001,-1.634999999999999));
#75=CARTESIAN_POINT('',(-8.881784E-016,1.635000000000000,-1.634999999999999));
#76=CARTESIAN_POINT('',(6.349999999999999,1.635000000000001,2.002231E-016));
#77=CARTESIAN_POINT('',(-8.881784E-016,1.635000000000000,2.002231E-016));
#78=CARTESIAN_POINT('',(6.349999999999999,1.635000000000001,1.635000000000000));
#79=CARTESIAN_POINT('',(-8.881784E-016,1.634999999999999,1.635000000000000));
#80=CARTESIAN_POINT('',(6.349999999999999,9.662144E-016,1.635000000000000));
#81=CARTESIAN_POINT('',(-8.881784E-016,-2.002231E-016,1.635000000000000));
#82=CARTESIAN_POINT('',(6.349999999999999,-1.634999999999999,1.634999999999999));
#83=CARTESIAN_POINT('',(-8.881784E-016,-1.635000000000000,1.634999999999999));
#84=CARTESIAN_POINT('',(6.349999999999999,-1.634999999999999,-2.002231E-016));
#85=CARTESIAN_POINT('',(-8.881784E-016,-1.635000000000000,-2.002231E-016));
#93=(BOUNDED_SURFACE()B_SPLINE_SURFACE(1,2,((#68,#70,#72,#74,#76,#78,#80,#82,#84),(#69,#71,#73,#75,#77,#79,#81,#83,#85)),.UNSPECIFIED.,.F.,.T.,.U.)B_SPLINE_SURFACE_WITH_KNOTS((2,2),(3,2,2,2,3),(-6.637535827111217,-2.753743778181554),(0.0,2.568251994309656,5.136503988619312,7.704755982928968,10.273007977238624),.UNSPECIFIED.)GEOMETRIC_REPRESENTATION_ITEM()RATIONAL_B_SPLINE_SURFACE(((1.0,0.707106781186548,1.0,0.707106781186548,1.0,0.707106781186548,1.0,0.707106781186548,1.0),(1.0,0.707106781186548,1.0,0.707106781186548,1.0,0.707106781186548,1.0,0.707106781186548,1.0)))REPRESENTATION_ITEM('')SURFACE());
#94=CARTESIAN_POINT('',(3.003347E-016,-1.635000000000000,-2.002231E-016));
#95=VERTEX_POINT('',#94);
#96=CARTESIAN_POINT('',(0.0,0.0,0.0));
#97=DIRECTION('',(1.0,0.0,0.0));
#98=DIRECTION('',(0.0,1.0,0.0));
#99=AXIS2_PLACEMENT_3D('',#96,#97,#98);
#100=CIRCLE('',#99,1.635000000000000);
#101=EDGE_CURVE('',#95,#95,#100,.T.);
#102=ORIENTED_EDGE('',*,*,#101,.F.);
#103=EDGE_LOOP('',(#102));
#104=FACE_OUTER_BOUND('',#103,.T.);
#105=CARTESIAN_POINT('',(6.350000000000000,1.635000000000001,0.0));
#106=VERTEX_POINT('',#105);
#107=CARTESIAN_POINT('',(6.350000000000000,1.166438E-015,0.0));
#108=DIRECTION('',(-1.0,0.0,0.0));
#109=DIRECTION('',(0.0,1.0,0.0));
#110=AXIS2_PLACEMENT_3D('',#107,#108,#109);
#111=CIRCLE('',#110,1.635000000000000);
#112=EDGE_CURVE('',#106,#106,#111,.T.);
#113=ORIENTED_EDGE('',*,*,#112,.F.);
#114=EDGE_LOOP('',(#113));
#115=FACE_BOUND('',#114,.T.);
#116=ADVANCED_FACE('',(#104,#115),#93,.F.);
#117=CARTESIAN_POINT('',(0.130000000000000,2.387982E-017,0.0));
#118=DIRECTION('',(1.0,1.836910E-016,0.0));
#119=DIRECTION('',(0.0,0.0,-1.0));
#120=AXIS2_PLACEMENT_3D('',#117,#118,#119);
#121=TOROIDAL_SURFACE('',#120,1.966693330833182,0.130000000000000);
#122=CARTESIAN_POINT('',(-1.704442E-016,1.966693330833182,0.0));
#123=VERTEX_POINT('',#122);
#124=CARTESIAN_POINT('',(1.908196E-016,4.237046E-032,0.0));
#125=DIRECTION('',(1.0,0.0,0.0));
#126=DIRECTION('',(0.0,-1.0,0.0));
#127=AXIS2_PLACEMENT_3D('',#124,#125,#126);
#128=CIRCLE('',#127,1.966693330833182);
#129=EDGE_CURVE('',#123,#123,#128,.T.);
#130=ORIENTED_EDGE('',*,*,#129,.T.);
#131=EDGE_LOOP('',(#130));
#132=FACE_OUTER_BOUND('',#131,.T.);
#133=CARTESIAN_POINT('',(0.100756362935297,2.093361439255263,-5.127087E-016));
#134=VERTEX_POINT('',#133);
#135=CARTESIAN_POINT('',(0.100756362935298,0.0,-2.563544E-016));
#136=DIRECTION('',(-1.0,0.0,0.0));
#137=DIRECTION('',(0.0,-1.0,0.0));
#138=AXIS2_PLACEMENT_3D('',#135,#136,#137);
#139=CIRCLE('',#138,2.093361439255263);
#140=EDGE_CURVE('',#134,#134,#139,.T.);
#141=ORIENTED_EDGE('',*,*,#140,.T.);
#142=EDGE_LOOP('',(#141));
#143=FACE_BOUND('',#142,.T.);
#144=ADVANCED_FACE('',(#132,#143),#121,.T.);
#145=CARTESIAN_POINT('',(2.255399487739762,4.142965E-016,0.0));
#146=DIRECTION('',(1.0,1.836910E-016,0.0));
#147=DIRECTION('',(0.0,1.0,0.0));
#148=AXIS2_PLACEMENT_3D('',#145,#146,#147);
#149=CONICAL_SURFACE('',#148,2.590800000000001,13.000000000000012);
#150=CARTESIAN_POINT('',(4.510798975479522,3.111500000000003,0.0));
#151=VERTEX_POINT('',#150);
#152=CARTESIAN_POINT('',(4.510798975479523,8.285930E-016,0.0));
#153=DIRECTION('',(1.0,0.0,0.0));
#154=DIRECTION('',(0.0,1.0,0.0));
#155=AXIS2_PLACEMENT_3D('',#152,#153,#154);
#156=CIRCLE('',#155,3.111500000000002);
#157=EDGE_CURVE('',#151,#151,#156,.T.);
#158=ORIENTED_EDGE('',*,*,#157,.F.);
#159=EDGE_LOOP('',(#158));
#160=FACE_OUTER_BOUND('',#159,.T.);
#161=ORIENTED_EDGE('',*,*,#140,.F.);
#162=EDGE_LOOP('',(#161));
#163=FACE_BOUND('',#162,.T.);
#164=ADVANCED_FACE('',(#160,#163),#149,.T.);
#165=CARTESIAN_POINT('',(0.0,1.035050000000000,0.0));
#166=DIRECTION('',(-1.0,0.0,0.0));
#167=DIRECTION('',(0.0,0.0,1.0));
#168=AXIS2_PLACEMENT_3D('',#165,#166,#167);
#169=PLANE('',#168);
#170=ORIENTED_EDGE('',*,*,#129,.F.);
#171=EDGE_LOOP('',(#170));
#172=FACE_OUTER_BOUND('',#171,.T.);
#173=ORIENTED_EDGE('',*,*,#101,.T.);
#174=EDGE_LOOP('',(#173));
#175=FACE_BOUND('',#174,.T.);
#176=ADVANCED_FACE('',(#172,#175),#169,.T.);
#177=CARTESIAN_POINT('',(5.150509813600261,9.461021E-016,0.0));
#178=DIRECTION('',(1.0,1.836910E-016,0.0));
#179=DIRECTION('',(0.0,1.0,0.0));
#180=AXIS2_PLACEMENT_3D('',#177,#178,#179);
#181=CYLINDRICAL_SURFACE('',#180,3.111500000000001);
#182=CARTESIAN_POINT('',(5.790220651720999,3.111500000000001,0.0));
#183=VERTEX_POINT('',#182);
#184=CARTESIAN_POINT('',(5.790220651721000,1.063611E-015,0.0));
#185=DIRECTION('',(1.0,0.0,0.0));
#186=DIRECTION('',(0.0,1.0,0.0));
#187=AXIS2_PLACEMENT_3D('',#184,#185,#186);
#188=CIRCLE('',#187,3.111500000000000);
#189=EDGE_CURVE('',#183,#183,#188,.T.);
#190=ORIENTED_EDGE('',*,*,#189,.F.);
#191=EDGE_LOOP('',(#190));
#192=FACE_OUTER_BOUND('',#191,.T.);
#193=ORIENTED_EDGE('',*,*,#157,.T.);
#194=EDGE_LOOP('',(#193));
#195=FACE_BOUND('',#194,.T.);
#196=ADVANCED_FACE('',(#192,#195),#181,.T.);
#197=CARTESIAN_POINT('',(4.874050718877065,8.326673E-016,0.0));
#198=DIRECTION('',(1.0,1.836910E-016,0.0));
#199=DIRECTION('',(0.0,0.0,-1.0));
#200=AXIS2_PLACEMENT_3D('',#197,#198,#199);
#201=TOROIDAL_SURFACE('',#200,1.893629459198253,1.524000000000000);
#202=CARTESIAN_POINT('',(6.350000000000000,2.273300000000002,0.0));
#203=VERTEX_POINT('',#202);
#204=CARTESIAN_POINT('',(6.350000000000000,1.166438E-015,0.0));
#205=DIRECTION('',(1.0,0.0,0.0));
#206=DIRECTION('',(0.0,1.0,0.0));
#207=AXIS2_PLACEMENT_3D('',#204,#205,#206);
#208=CIRCLE('',#207,2.273300000000000);
#209=EDGE_CURVE('',#203,#203,#208,.T.);
#210=ORIENTED_EDGE('',*,*,#209,.F.);
#211=EDGE_LOOP('',(#210));
#212=FACE_OUTER_BOUND('',#211,.T.);
#213=ORIENTED_EDGE('',*,*,#189,.T.);
#214=EDGE_LOOP('',(#213));
#215=FACE_BOUND('',#214,.T.);
#216=ADVANCED_FACE('',(#212,#215),#201,.T.);
#217=CARTESIAN_POINT('',(6.350000000000000,1.136650000000001,0.0));
#218=DIRECTION('',(1.0,0.0,0.0));
#219=DIRECTION('',(0.0,0.0,-1.0));
#220=AXIS2_PLACEMENT_3D('',#217,#218,#219);
#221=PLANE('',#220);
#222=ORIENTED_EDGE('',*,*,#209,.T.);
#223=EDGE_LOOP('',(#222));
#224=FACE_OUTER_BOUND('',#223,.T.);
#225=ORIENTED_EDGE('',*,*,#112,.T.);
#226=EDGE_LOOP('',(#225));
#227=FACE_BOUND('',#226,.T.);
#228=ADVANCED_FACE('',(#224,#227),#221,.T.);
#229=CLOSED_SHELL('',(#116,#144,#164,#176,#196,#216,#228));
#230=MANIFOLD_SOLID_BREP('',#229);
#231=COLOUR_RGB('Metall - Stahl',0.639216005802155,0.639216005802155,0.686275005340576);
#232=FILL_AREA_STYLE_COLOUR('Metall - Stahl',#231);
#233=FILL_AREA_STYLE('Metall - Stahl',(#232));
#234=SURFACE_STYLE_FILL_AREA(#233);
#235=SURFACE_SIDE_STYLE('Metall - Stahl',(#234));
#236=SURFACE_STYLE_USAGE(.BOTH.,#235);
#237=PRESENTATION_STYLE_ASSIGNMENT((#236));
#238=STYLED_ITEM('',(#237),#230);
#239=MECHANICAL_DESIGN_GEOMETRIC_PRESENTATION_REPRESENTATION('',(#238),#36);
#240=ADVANCED_BREP_SHAPE_REPRESENTATION('ABSR',(#230),#36);
#241=SHAPE_REPRESENTATION_RELATIONSHIP('SRR','None',#240,#41);
ENDSEC;
END-ISO-10303-21;
