ISO-10303-21;
HEADER;
/****************************************************************
 * Generated by software with PDE/Lib inside                    *
 * PDElib Version v51a, created Thu 12/14/2006                  *
 * International Technegroup Inc. (www.iti-oh.com)              *
 ****************************************************************/
FILE_DESCRIPTION((''),'2;1');
FILE_NAME('\\\\VICISRV2\\am\\Vault,D-CL_VICI\\Tech-Support\\Dimension Fittings\\Step Dateien\\310148-ZF4S6 Ferrule.stp','2008-08-07T17:14:06',('Franzp'),(''),'Autodesk Inventor 2008','Autodesk Inventor 2008','');
FILE_SCHEMA(('AUTOMOTIVE_DESIGN { 1 0 10303 214 1 1 1 1 }'));
ENDSEC;
DATA;
#5=APPLICATION_CONTEXT('automotive design');
#6=APPLICATION_PROTOCOL_DEFINITION('International Standard','automotive_design',2001,#5);
#7=PRODUCT_CONTEXT('',#5,'mechanical');
#8=PRODUCT('310148','310148',$,(#7));
#9=PRODUCT_RELATED_PRODUCT_CATEGORY('part',$,(#8));
#10=PRODUCT_DEFINITION_FORMATION('',$,#8);
#11=PRODUCT_DEFINITION_CONTEXT('part definition',#5,'design');
#12=PRODUCT_DEFINITION('',$,#10,#11);
#18=(NAMED_UNIT(*)PLANE_ANGLE_UNIT()SI_UNIT($,.RADIAN.));
#19=DIMENSIONAL_EXPONENTS(0.0,0.0,0.0,0.0,0.0,0.0,0.0);
#20=PLANE_ANGLE_MEASURE_WITH_UNIT(PLANE_ANGLE_MEASURE(0.017453292500000),#18);
#24=(CONVERSION_BASED_UNIT('DEGREE',#20)NAMED_UNIT(#19)PLANE_ANGLE_UNIT());
#28=(NAMED_UNIT(*)SI_UNIT($,.STERADIAN.)SOLID_ANGLE_UNIT());
#32=(LENGTH_UNIT()NAMED_UNIT(*)SI_UNIT(.MILLI.,.METRE.));
#34=UNCERTAINTY_MEASURE_WITH_UNIT(LENGTH_MEASURE(0.010000000000000),#32,'DISTANCE_ACCURACY_VALUE','');
#36=(GEOMETRIC_REPRESENTATION_CONTEXT(3)GLOBAL_UNCERTAINTY_ASSIGNED_CONTEXT((#34))GLOBAL_UNIT_ASSIGNED_CONTEXT((#24,#28,#32))REPRESENTATION_CONTEXT('None','None'));
#37=AXIS2_PLACEMENT_3D('',#38,#39,#40);
#38=CARTESIAN_POINT('',(0.0,0.0,0.0));
#39=DIRECTION('',(0.0,0.0,1.0));
#40=DIRECTION('',(1.0,0.0,0.0));
#41=SHAPE_REPRESENTATION('',(#37),#36);
#42=PRODUCT_DEFINITION_SHAPE('','',#12);
#43=SHAPE_DEFINITION_REPRESENTATION(#42,#41);
#49=(NAMED_UNIT(*)PLANE_ANGLE_UNIT()SI_UNIT($,.RADIAN.));
#50=DIMENSIONAL_EXPONENTS(0.0,0.0,0.0,0.0,0.0,0.0,0.0);
#51=PLANE_ANGLE_MEASURE_WITH_UNIT(PLANE_ANGLE_MEASURE(0.017453292500000),#49);
#55=(CONVERSION_BASED_UNIT('DEGREE',#51)NAMED_UNIT(#50)PLANE_ANGLE_UNIT());
#59=(NAMED_UNIT(*)SI_UNIT($,.STERADIAN.)SOLID_ANGLE_UNIT());
#63=(LENGTH_UNIT()NAMED_UNIT(*)SI_UNIT(.MILLI.,.METRE.));
#65=UNCERTAINTY_MEASURE_WITH_UNIT(LENGTH_MEASURE(0.000001000000000),#63,'DISTANCE_ACCURACY_VALUE','');
#67=(GEOMETRIC_REPRESENTATION_CONTEXT(3)GLOBAL_UNCERTAINTY_ASSIGNED_CONTEXT((#65))GLOBAL_UNIT_ASSIGNED_CONTEXT((#55,#59,#63))REPRESENTATION_CONTEXT('','3D'));
#68=CARTESIAN_POINT('',(7.302500000000000,1.100652E-015,0.0));
#69=DIRECTION('',(1.0,1.507226E-016,0.0));
#70=DIRECTION('',(0.0,-1.0,0.0));
#71=AXIS2_PLACEMENT_3D('',#68,#69,#70);
#72=CONICAL_SURFACE('',#71,3.289300000000001,45.000000000000121);
#73=CARTESIAN_POINT('',(7.239000000000001,3.225800000000001,-3.950335E-016));
#74=VERTEX_POINT('',#73);
#75=CARTESIAN_POINT('',(7.239000000000001,1.091081E-015,0.0));
#76=DIRECTION('',(-1.0,0.0,0.0));
#77=DIRECTION('',(0.0,-1.0,0.0));
#78=AXIS2_PLACEMENT_3D('',#75,#76,#77);
#79=CIRCLE('',#78,3.225800000000000);
#80=EDGE_CURVE('',#74,#74,#79,.T.);
#81=ORIENTED_EDGE('',*,*,#80,.T.);
#82=EDGE_LOOP('',(#81));
#83=FACE_OUTER_BOUND('',#82,.T.);
#84=CARTESIAN_POINT('',(7.366000000000001,3.352800000000001,4.105860E-016));
#85=VERTEX_POINT('',#84);
#86=CARTESIAN_POINT('',(7.366000000000001,1.110223E-015,0.0));
#87=DIRECTION('',(1.0,0.0,0.0));
#88=DIRECTION('',(0.0,-1.0,0.0));
#89=AXIS2_PLACEMENT_3D('',#86,#87,#88);
#90=CIRCLE('',#89,3.352800000000000);
#91=EDGE_CURVE('',#85,#85,#90,.T.);
#92=ORIENTED_EDGE('',*,*,#91,.T.);
#93=EDGE_LOOP('',(#92));
#94=FACE_BOUND('',#93,.T.);
#95=ADVANCED_FACE('',(#83,#94),#72,.F.);
#96=CARTESIAN_POINT('',(7.366000000000001,2.317750000000001,0.0));
#97=DIRECTION('',(1.0,0.0,0.0));
#98=DIRECTION('',(0.0,0.0,-1.0));
#99=AXIS2_PLACEMENT_3D('',#96,#97,#98);
#100=PLANE('',#99);
#101=CARTESIAN_POINT('',(7.366000000000000,4.178300000000002,-1.023355E-015));
#102=VERTEX_POINT('',#101);
#103=CARTESIAN_POINT('',(7.366000000000001,1.110223E-015,0.0));
#104=DIRECTION('',(-1.0,0.0,0.0));
#105=DIRECTION('',(0.0,-1.0,0.0));
#106=AXIS2_PLACEMENT_3D('',#103,#104,#105);
#107=CIRCLE('',#106,4.178300000000000);
#108=EDGE_CURVE('',#102,#102,#107,.T.);
#109=ORIENTED_EDGE('',*,*,#108,.F.);
#110=EDGE_LOOP('',(#109));
#111=FACE_OUTER_BOUND('',#110,.T.);
#112=ORIENTED_EDGE('',*,*,#91,.F.);
#113=EDGE_LOOP('',(#112));
#114=FACE_BOUND('',#113,.T.);
#115=ADVANCED_FACE('',(#111,#114),#100,.T.);
#116=CARTESIAN_POINT('',(7.239000000000003,-3.225800000000000,-3.950335E-016));
#117=CARTESIAN_POINT('',(0.0,-3.225800000000000,-3.950335E-016));
#118=CARTESIAN_POINT('',(7.239000000000004,-3.225799999999998,-3.225800000000000));
#119=CARTESIAN_POINT('',(-1.972152E-031,-3.225799999999999,-3.225800000000000));
#120=CARTESIAN_POINT('',(7.239000000000004,1.486115E-015,-3.225800000000000));
#121=CARTESIAN_POINT('',(-8.881784E-016,3.950335E-016,-3.225800000000000));
#122=CARTESIAN_POINT('',(7.239000000000005,3.225800000000001,-3.225799999999999));
#123=CARTESIAN_POINT('',(-1.776357E-015,3.225800000000000,-3.225799999999999));
#124=CARTESIAN_POINT('',(7.239000000000005,3.225800000000001,3.950335E-016));
#125=CARTESIAN_POINT('',(-1.776357E-015,3.225800000000000,3.950335E-016));
#126=CARTESIAN_POINT('',(7.239000000000005,3.225800000000000,3.225800000000000));
#127=CARTESIAN_POINT('',(-1.776357E-015,3.225799999999999,3.225800000000000));
#128=CARTESIAN_POINT('',(7.239000000000004,6.960477E-016,3.225800000000000));
#129=CARTESIAN_POINT('',(-8.881784E-016,-3.950335E-016,3.225800000000000));
#130=CARTESIAN_POINT('',(7.239000000000004,-3.225799999999999,3.225799999999999));
#131=CARTESIAN_POINT('',(-9.860761E-032,-3.225800000000000,3.225799999999999));
#132=CARTESIAN_POINT('',(7.239000000000003,-3.225800000000000,-3.950335E-016));
#133=CARTESIAN_POINT('',(0.0,-3.225800000000000,-3.950335E-016));
#141=(BOUNDED_SURFACE()B_SPLINE_SURFACE(1,2,((#116,#118,#120,#122,#124,#126,#128,#130,#132),(#117,#119,#121,#123,#125,#127,#129,#131,#133)),.UNSPECIFIED.,.F.,.T.,.U.)B_SPLINE_SURFACE_WITH_KNOTS((2,2),(3,2,2,2,3),(-4.622619139210368,-2.378524651021391),(0.0,5.067074790974978,10.134149581949956,15.201224372924933,20.268299163899911),.UNSPECIFIED.)GEOMETRIC_REPRESENTATION_ITEM()RATIONAL_B_SPLINE_SURFACE(((1.0,0.707106781186548,1.0,0.707106781186548,1.0,0.707106781186548,1.0,0.707106781186548,1.0),(1.0,0.707106781186548,1.0,0.707106781186548,1.0,0.707106781186548,1.0,0.707106781186548,1.0)))REPRESENTATION_ITEM('')SURFACE());
#142=CARTESIAN_POINT('',(4.862011E-016,-3.225800000000000,-3.950335E-016));
#143=VERTEX_POINT('',#142);
#144=CARTESIAN_POINT('',(0.0,0.0,0.0));
#145=DIRECTION('',(1.0,0.0,0.0));
#146=DIRECTION('',(0.0,1.0,0.0));
#147=AXIS2_PLACEMENT_3D('',#144,#145,#146);
#148=CIRCLE('',#147,3.225800000000000);
#149=EDGE_CURVE('',#143,#143,#148,.T.);
#150=ORIENTED_EDGE('',*,*,#149,.F.);
#151=EDGE_LOOP('',(#150));
#152=FACE_OUTER_BOUND('',#151,.T.);
#153=ORIENTED_EDGE('',*,*,#80,.F.);
#154=EDGE_LOOP('',(#153));
#155=FACE_BOUND('',#154,.T.);
#156=ADVANCED_FACE('',(#152,#155),#141,.F.);
#157=CARTESIAN_POINT('',(6.908800000000000,1.041313E-015,0.0));
#158=DIRECTION('',(1.0,1.507226E-016,0.0));
#159=DIRECTION('',(0.0,0.0,-1.0));
#160=AXIS2_PLACEMENT_3D('',#157,#158,#159);
#161=TOROIDAL_SURFACE('',#160,4.178300000000000,0.457200000000000);
#162=CARTESIAN_POINT('',(6.908799999999999,4.635500000000001,0.0));
#163=VERTEX_POINT('',#162);
#164=CARTESIAN_POINT('',(6.908800000000000,1.041313E-015,0.0));
#165=DIRECTION('',(1.0,0.0,0.0));
#166=DIRECTION('',(0.0,-1.0,0.0));
#167=AXIS2_PLACEMENT_3D('',#164,#165,#166);
#168=CIRCLE('',#167,4.635500000000000);
#169=EDGE_CURVE('',#163,#163,#168,.T.);
#170=ORIENTED_EDGE('',*,*,#169,.T.);
#171=EDGE_LOOP('',(#170));
#172=FACE_OUTER_BOUND('',#171,.T.);
#173=ORIENTED_EDGE('',*,*,#108,.T.);
#174=EDGE_LOOP('',(#173));
#175=FACE_BOUND('',#174,.T.);
#176=ADVANCED_FACE('',(#172,#175),#161,.T.);
#177=CARTESIAN_POINT('',(5.883389744136353,8.867601E-016,0.0));
#178=DIRECTION('',(1.0,1.507226E-016,0.0));
#179=DIRECTION('',(0.0,1.0,0.0));
#180=AXIS2_PLACEMENT_3D('',#177,#178,#179);
#181=CYLINDRICAL_SURFACE('',#180,4.635500000000000);
#182=CARTESIAN_POINT('',(4.400779488272702,4.635500000000001,0.0));
#183=VERTEX_POINT('',#182);
#184=CARTESIAN_POINT('',(4.400779488272703,6.632971E-016,0.0));
#185=DIRECTION('',(1.0,0.0,0.0));
#186=DIRECTION('',(0.0,1.0,0.0));
#187=AXIS2_PLACEMENT_3D('',#184,#185,#186);
#188=CIRCLE('',#187,4.635500000000000);
#189=EDGE_CURVE('',#183,#183,#188,.T.);
#190=ORIENTED_EDGE('',*,*,#189,.T.);
#191=EDGE_LOOP('',(#190));
#192=FACE_OUTER_BOUND('',#191,.T.);
#193=ORIENTED_EDGE('',*,*,#169,.F.);
#194=EDGE_LOOP('',(#193));
#195=FACE_BOUND('',#194,.T.);
#196=ADVANCED_FACE('',(#192,#195),#181,.T.);
#197=CARTESIAN_POINT('',(0.165100000000000,2.488431E-017,0.0));
#198=DIRECTION('',(1.0,1.507226E-016,0.0));
#199=DIRECTION('',(0.0,0.0,-1.0));
#200=AXIS2_PLACEMENT_3D('',#197,#198,#199);
#201=TOROIDAL_SURFACE('',#200,3.488173530158141,0.165100000000000);
#202=CARTESIAN_POINT('',(-2.481910E-016,3.488173530158141,0.0));
#203=VERTEX_POINT('',#202);
#204=CARTESIAN_POINT('',(2.775558E-016,5.777790E-032,0.0));
#205=DIRECTION('',(1.0,0.0,0.0));
#206=DIRECTION('',(0.0,-1.0,0.0));
#207=AXIS2_PLACEMENT_3D('',#204,#205,#206);
#208=CIRCLE('',#207,3.488173530158141);
#209=EDGE_CURVE('',#203,#203,#208,.T.);
#210=ORIENTED_EDGE('',*,*,#209,.T.);
#211=EDGE_LOOP('',(#210));
#212=FACE_OUTER_BOUND('',#211,.T.);
#213=CARTESIAN_POINT('',(0.127960580927828,3.649042027854184,-8.937280E-016));
#214=VERTEX_POINT('',#213);
#215=CARTESIAN_POINT('',(0.127960580927828,0.0,-4.468640E-016));
#216=DIRECTION('',(-1.0,0.0,0.0));
#217=DIRECTION('',(0.0,-1.0,0.0));
#218=AXIS2_PLACEMENT_3D('',#215,#216,#217);
#219=CIRCLE('',#218,3.649042027854184);
#220=EDGE_CURVE('',#214,#214,#219,.T.);
#221=ORIENTED_EDGE('',*,*,#220,.T.);
#222=EDGE_LOOP('',(#221));
#223=FACE_BOUND('',#222,.T.);
#224=ADVANCED_FACE('',(#212,#223),#201,.T.);
#225=CARTESIAN_POINT('',(2.200389744136352,3.316486E-016,0.0));
#226=DIRECTION('',(1.0,1.507226E-016,0.0));
#227=DIRECTION('',(0.0,1.0,0.0));
#228=AXIS2_PLACEMENT_3D('',#225,#226,#227);
#229=CONICAL_SURFACE('',#228,4.127500000000000,13.000000000000009);
#230=ORIENTED_EDGE('',*,*,#189,.F.);
#231=EDGE_LOOP('',(#230));
#232=FACE_OUTER_BOUND('',#231,.T.);
#233=ORIENTED_EDGE('',*,*,#220,.F.);
#234=EDGE_LOOP('',(#233));
#235=FACE_BOUND('',#234,.T.);
#236=ADVANCED_FACE('',(#232,#235),#229,.T.);
#237=CARTESIAN_POINT('',(0.0,1.809750000000000,0.0));
#238=DIRECTION('',(-1.0,0.0,0.0));
#239=DIRECTION('',(0.0,0.0,1.0));
#240=AXIS2_PLACEMENT_3D('',#237,#238,#239);
#241=PLANE('',#240);
#242=ORIENTED_EDGE('',*,*,#209,.F.);
#243=EDGE_LOOP('',(#242));
#244=FACE_OUTER_BOUND('',#243,.T.);
#245=ORIENTED_EDGE('',*,*,#149,.T.);
#246=EDGE_LOOP('',(#245));
#247=FACE_BOUND('',#246,.T.);
#248=ADVANCED_FACE('',(#244,#247),#241,.T.);
#249=CLOSED_SHELL('',(#95,#115,#156,#176,#196,#224,#236,#248));
#250=MANIFOLD_SOLID_BREP('',#249);
#251=COLOUR_RGB('Metall - Stahl',0.639216005802155,0.639216005802155,0.686275005340576);
#252=FILL_AREA_STYLE_COLOUR('Metall - Stahl',#251);
#253=FILL_AREA_STYLE('Metall - Stahl',(#252));
#254=SURFACE_STYLE_FILL_AREA(#253);
#255=SURFACE_SIDE_STYLE('Metall - Stahl',(#254));
#256=SURFACE_STYLE_USAGE(.BOTH.,#255);
#257=PRESENTATION_STYLE_ASSIGNMENT((#256));
#258=STYLED_ITEM('',(#257),#250);
#259=MECHANICAL_DESIGN_GEOMETRIC_PRESENTATION_REPRESENTATION('',(#258),#36);
#260=ADVANCED_BREP_SHAPE_REPRESENTATION('ABSR',(#250),#36);
#261=SHAPE_REPRESENTATION_RELATIONSHIP('SRR','None',#260,#41);
ENDSEC;
END-ISO-10303-21;
