ISO-10303-21;
HEADER;
/****************************************************************
 * Generated by software with PDE/Lib inside                    *
 * PDElib Version v51a, created Thu 12/14/2006                  *
 * International Technegroup Inc. (www.iti-oh.com)              *
 ****************************************************************/
FILE_DESCRIPTION((''),'2;1');
FILE_NAME('\\\\VICISRV2\\am\\Vault,D-CL_VICI\\Tech-Support\\Dimension Fittings\\Step Dateien\\310169-ZF6S6 Ferrule.stp','2008-08-07T17:15:33',('Franzp'),(''),'Autodesk Inventor 2008','Autodesk Inventor 2008','');
FILE_SCHEMA(('AUTOMOTIVE_DESIGN { 1 0 10303 214 1 1 1 1 }'));
ENDSEC;
DATA;
#5=APPLICATION_CONTEXT('automotive design');
#6=APPLICATION_PROTOCOL_DEFINITION('International Standard','automotive_design',2001,#5);
#7=PRODUCT_CONTEXT('',#5,'mechanical');
#8=PRODUCT('310169','310169',$,(#7));
#9=PRODUCT_RELATED_PRODUCT_CATEGORY('part',$,(#8));
#10=PRODUCT_DEFINITION_FORMATION('',$,#8);
#11=PRODUCT_DEFINITION_CONTEXT('part definition',#5,'design');
#12=PRODUCT_DEFINITION('',$,#10,#11);
#18=(NAMED_UNIT(*)PLANE_ANGLE_UNIT()SI_UNIT($,.RADIAN.));
#19=DIMENSIONAL_EXPONENTS(0.0,0.0,0.0,0.0,0.0,0.0,0.0);
#20=PLANE_ANGLE_MEASURE_WITH_UNIT(PLANE_ANGLE_MEASURE(0.017453292500000),#18);
#24=(CONVERSION_BASED_UNIT('DEGREE',#20)NAMED_UNIT(#19)PLANE_ANGLE_UNIT());
#28=(NAMED_UNIT(*)SI_UNIT($,.STERADIAN.)SOLID_ANGLE_UNIT());
#32=(LENGTH_UNIT()NAMED_UNIT(*)SI_UNIT(.MILLI.,.METRE.));
#34=UNCERTAINTY_MEASURE_WITH_UNIT(LENGTH_MEASURE(0.010000000000000),#32,'DISTANCE_ACCURACY_VALUE','');
#36=(GEOMETRIC_REPRESENTATION_CONTEXT(3)GLOBAL_UNCERTAINTY_ASSIGNED_CONTEXT((#34))GLOBAL_UNIT_ASSIGNED_CONTEXT((#24,#28,#32))REPRESENTATION_CONTEXT('None','None'));
#37=AXIS2_PLACEMENT_3D('',#38,#39,#40);
#38=CARTESIAN_POINT('',(0.0,0.0,0.0));
#39=DIRECTION('',(0.0,0.0,1.0));
#40=DIRECTION('',(1.0,0.0,0.0));
#41=SHAPE_REPRESENTATION('',(#37),#36);
#42=PRODUCT_DEFINITION_SHAPE('','',#12);
#43=SHAPE_DEFINITION_REPRESENTATION(#42,#41);
#49=(NAMED_UNIT(*)PLANE_ANGLE_UNIT()SI_UNIT($,.RADIAN.));
#50=DIMENSIONAL_EXPONENTS(0.0,0.0,0.0,0.0,0.0,0.0,0.0);
#51=PLANE_ANGLE_MEASURE_WITH_UNIT(PLANE_ANGLE_MEASURE(0.017453292500000),#49);
#55=(CONVERSION_BASED_UNIT('DEGREE',#51)NAMED_UNIT(#50)PLANE_ANGLE_UNIT());
#59=(NAMED_UNIT(*)SI_UNIT($,.STERADIAN.)SOLID_ANGLE_UNIT());
#63=(LENGTH_UNIT()NAMED_UNIT(*)SI_UNIT(.MILLI.,.METRE.));
#65=UNCERTAINTY_MEASURE_WITH_UNIT(LENGTH_MEASURE(0.000001000000000),#63,'DISTANCE_ACCURACY_VALUE','');
#67=(GEOMETRIC_REPRESENTATION_CONTEXT(3)GLOBAL_UNCERTAINTY_ASSIGNED_CONTEXT((#65))GLOBAL_UNIT_ASSIGNED_CONTEXT((#55,#59,#63))REPRESENTATION_CONTEXT('','3D'));
#68=CARTESIAN_POINT('',(1.364337567297406,0.0,0.0));
#69=DIRECTION('',(-1.0,0.0,0.0));
#70=DIRECTION('',(0.0,1.0,0.0));
#71=AXIS2_PLACEMENT_3D('',#68,#69,#70);
#72=CONICAL_SURFACE('',#71,4.930000000000000,59.999999999999957);
#73=CARTESIAN_POINT('',(1.430732848254216,-4.815000000000000,5.896480E-016));
#74=VERTEX_POINT('',#73);
#75=CARTESIAN_POINT('',(1.430732848254215,2.156438E-016,0.0));
#76=DIRECTION('',(-1.0,0.0,0.0));
#77=DIRECTION('',(0.0,1.0,0.0));
#78=AXIS2_PLACEMENT_3D('',#75,#76,#77);
#79=CIRCLE('',#78,4.815000000000000);
#80=EDGE_CURVE('',#74,#74,#79,.T.);
#81=ORIENTED_EDGE('',*,*,#80,.F.);
#82=EDGE_LOOP('',(#81));
#83=FACE_OUTER_BOUND('',#82,.T.);
#84=CARTESIAN_POINT('',(1.220000000000000,5.180000000000000,0.0));
#85=VERTEX_POINT('',#84);
#86=CARTESIAN_POINT('',(1.220000000000000,0.0,0.0));
#87=DIRECTION('',(-1.0,0.0,0.0));
#88=DIRECTION('',(0.0,1.0,0.0));
#89=AXIS2_PLACEMENT_3D('',#86,#87,#88);
#90=CIRCLE('',#89,5.180000000000000);
#91=EDGE_CURVE('',#85,#85,#90,.T.);
#92=ORIENTED_EDGE('',*,*,#91,.T.);
#93=EDGE_LOOP('',(#92));
#94=FACE_BOUND('',#93,.T.);
#95=ADVANCED_FACE('',(#83,#94),#72,.F.);
#96=CARTESIAN_POINT('',(1.075662432702593,0.0,0.0));
#97=DIRECTION('',(1.0,0.0,0.0));
#98=DIRECTION('',(0.0,1.0,0.0));
#99=AXIS2_PLACEMENT_3D('',#96,#97,#98);
#100=CONICAL_SURFACE('',#99,4.930000000000000,60.000000000000043);
#101=CARTESIAN_POINT('',(1.009267151745786,-4.815000000000000,-5.896480E-016));
#102=VERTEX_POINT('',#101);
#103=CARTESIAN_POINT('',(1.009267151745785,1.521194E-016,0.0));
#104=DIRECTION('',(1.0,0.0,0.0));
#105=DIRECTION('',(0.0,1.0,0.0));
#106=AXIS2_PLACEMENT_3D('',#103,#104,#105);
#107=CIRCLE('',#106,4.815000000000000);
#108=EDGE_CURVE('',#102,#102,#107,.T.);
#109=ORIENTED_EDGE('',*,*,#108,.F.);
#110=EDGE_LOOP('',(#109));
#111=FACE_OUTER_BOUND('',#110,.T.);
#112=ORIENTED_EDGE('',*,*,#91,.F.);
#113=EDGE_LOOP('',(#112));
#114=FACE_BOUND('',#113,.T.);
#115=ADVANCED_FACE('',(#111,#114),#100,.F.);
#116=CARTESIAN_POINT('',(1.009267151745787,-4.815000000000000,-5.896480E-016));
#117=CARTESIAN_POINT('',(-1.776357E-015,-4.815000000000000,-5.896480E-016));
#118=CARTESIAN_POINT('',(1.009267151745787,-4.814999999999999,-4.815000000000000));
#119=CARTESIAN_POINT('',(-1.776357E-015,-4.814999999999999,-4.815000000000000));
#120=CARTESIAN_POINT('',(1.009267151745787,7.417674E-016,-4.815000000000000));
#121=CARTESIAN_POINT('',(-1.776357E-015,5.896480E-016,-4.815000000000000));
#122=CARTESIAN_POINT('',(1.009267151745787,4.815000000000000,-4.814999999999999));
#123=CARTESIAN_POINT('',(-1.776357E-015,4.815000000000000,-4.814999999999999));
#124=CARTESIAN_POINT('',(1.009267151745787,4.815000000000000,5.896480E-016));
#125=CARTESIAN_POINT('',(-1.776357E-015,4.815000000000000,5.896480E-016));
#126=CARTESIAN_POINT('',(1.009267151745787,4.815000000000000,4.815000000000000));
#127=CARTESIAN_POINT('',(-1.776357E-015,4.814999999999999,4.815000000000000));
#128=CARTESIAN_POINT('',(1.009267151745787,-4.375285E-016,4.815000000000000));
#129=CARTESIAN_POINT('',(-1.776357E-015,-5.896480E-016,4.815000000000000));
#130=CARTESIAN_POINT('',(1.009267151745787,-4.815000000000000,4.814999999999999));
#131=CARTESIAN_POINT('',(-1.776357E-015,-4.815000000000000,4.814999999999999));
#132=CARTESIAN_POINT('',(1.009267151745787,-4.815000000000000,-5.896480E-016));
#133=CARTESIAN_POINT('',(-1.776357E-015,-4.815000000000000,-5.896480E-016));
#141=(BOUNDED_SURFACE()B_SPLINE_SURFACE(1,2,((#116,#118,#120,#122,#124,#126,#128,#130,#132),(#117,#119,#121,#123,#125,#127,#129,#131,#133)),.UNSPECIFIED.,.F.,.T.,.U.)B_SPLINE_SURFACE_WITH_KNOTS((2,2),(3,2,2,2,3),(-2.642517716860297,-2.432908754919323),(0.0,7.563384313517427,15.126768627034854,22.690152940552284,30.253537254069709),.UNSPECIFIED.)GEOMETRIC_REPRESENTATION_ITEM()RATIONAL_B_SPLINE_SURFACE(((1.0,0.707106781186548,1.0,0.707106781186548,1.0,0.707106781186548,1.0,0.707106781186548,1.0),(1.0,0.707106781186548,1.0,0.707106781186548,1.0,0.707106781186548,1.0,0.707106781186548,1.0)))REPRESENTATION_ITEM('')SURFACE());
#142=CARTESIAN_POINT('',(7.257295E-016,-4.815000000000000,-5.896480E-016));
#143=VERTEX_POINT('',#142);
#144=CARTESIAN_POINT('',(0.0,-2.465190E-031,0.0));
#145=DIRECTION('',(1.0,0.0,0.0));
#146=DIRECTION('',(0.0,1.0,0.0));
#147=AXIS2_PLACEMENT_3D('',#144,#145,#146);
#148=CIRCLE('',#147,4.815000000000000);
#149=EDGE_CURVE('',#143,#143,#148,.T.);
#150=ORIENTED_EDGE('',*,*,#149,.F.);
#151=EDGE_LOOP('',(#150));
#152=FACE_OUTER_BOUND('',#151,.T.);
#153=ORIENTED_EDGE('',*,*,#108,.T.);
#154=EDGE_LOOP('',(#153));
#155=FACE_BOUND('',#154,.T.);
#156=ADVANCED_FACE('',(#152,#155),#141,.F.);
#157=CARTESIAN_POINT('',(7.302500000000000,1.100652E-015,0.0));
#158=DIRECTION('',(1.0,1.507226E-016,0.0));
#159=DIRECTION('',(0.0,-1.0,0.0));
#160=AXIS2_PLACEMENT_3D('',#157,#158,#159);
#161=CONICAL_SURFACE('',#160,4.878500000000000,45.000000000000384);
#162=CARTESIAN_POINT('',(7.239000000000001,4.815000000000001,-5.896480E-016));
#163=VERTEX_POINT('',#162);
#164=CARTESIAN_POINT('',(7.239000000000003,1.091081E-015,0.0));
#165=DIRECTION('',(-1.0,0.0,0.0));
#166=DIRECTION('',(0.0,-1.0,0.0));
#167=AXIS2_PLACEMENT_3D('',#164,#165,#166);
#168=CIRCLE('',#167,4.815000000000000);
#169=EDGE_CURVE('',#163,#163,#168,.T.);
#170=ORIENTED_EDGE('',*,*,#169,.T.);
#171=EDGE_LOOP('',(#170));
#172=FACE_OUTER_BOUND('',#171,.T.);
#173=CARTESIAN_POINT('',(7.366000000000000,4.942000000000001,6.052005E-016));
#174=VERTEX_POINT('',#173);
#175=CARTESIAN_POINT('',(7.366000000000001,1.110223E-015,0.0));
#176=DIRECTION('',(1.0,0.0,0.0));
#177=DIRECTION('',(0.0,-1.0,0.0));
#178=AXIS2_PLACEMENT_3D('',#175,#176,#177);
#179=CIRCLE('',#178,4.942000000000000);
#180=EDGE_CURVE('',#174,#174,#179,.T.);
#181=ORIENTED_EDGE('',*,*,#180,.T.);
#182=EDGE_LOOP('',(#181));
#183=FACE_BOUND('',#182,.T.);
#184=ADVANCED_FACE('',(#172,#183),#161,.F.);
#185=CARTESIAN_POINT('',(7.366000000000001,3.111500000000001,0.0));
#186=DIRECTION('',(1.0,0.0,0.0));
#187=DIRECTION('',(0.0,0.0,-1.0));
#188=AXIS2_PLACEMENT_3D('',#185,#186,#187);
#189=PLANE('',#188);
#190=CARTESIAN_POINT('',(7.366000000000000,5.463000000000001,-1.338005E-015));
#191=VERTEX_POINT('',#190);
#192=CARTESIAN_POINT('',(7.366000000000001,1.110223E-015,0.0));
#193=DIRECTION('',(-1.0,0.0,0.0));
#194=DIRECTION('',(0.0,-1.0,0.0));
#195=AXIS2_PLACEMENT_3D('',#192,#193,#194);
#196=CIRCLE('',#195,5.463000000000000);
#197=EDGE_CURVE('',#191,#191,#196,.T.);
#198=ORIENTED_EDGE('',*,*,#197,.F.);
#199=EDGE_LOOP('',(#198));
#200=FACE_OUTER_BOUND('',#199,.T.);
#201=ORIENTED_EDGE('',*,*,#180,.F.);
#202=EDGE_LOOP('',(#201));
#203=FACE_BOUND('',#202,.T.);
#204=ADVANCED_FACE('',(#200,#203),#189,.T.);
#205=CARTESIAN_POINT('',(7.239000000000004,-4.815000000000000,-5.896480E-016));
#206=CARTESIAN_POINT('',(1.430732848254213,-4.815000000000000,-5.896480E-016));
#207=CARTESIAN_POINT('',(7.239000000000004,-4.814999999999998,-4.815000000000000));
#208=CARTESIAN_POINT('',(1.430732848254213,-4.814999999999999,-4.815000000000000));
#209=CARTESIAN_POINT('',(7.239000000000004,1.680729E-015,-4.815000000000000));
#210=CARTESIAN_POINT('',(1.430732848254213,8.052918E-016,-4.815000000000000));
#211=CARTESIAN_POINT('',(7.239000000000004,4.815000000000001,-4.814999999999999));
#212=CARTESIAN_POINT('',(1.430732848254213,4.815000000000000,-4.814999999999999));
#213=CARTESIAN_POINT('',(7.239000000000004,4.815000000000001,5.896480E-016));
#214=CARTESIAN_POINT('',(1.430732848254213,4.815000000000000,5.896480E-016));
#215=CARTESIAN_POINT('',(7.239000000000004,4.815000000000000,4.815000000000000));
#216=CARTESIAN_POINT('',(1.430732848254213,4.815000000000000,4.815000000000000));
#217=CARTESIAN_POINT('',(7.239000000000004,5.014333E-016,4.815000000000000));
#218=CARTESIAN_POINT('',(1.430732848254213,-3.740041E-016,4.815000000000000));
#219=CARTESIAN_POINT('',(7.239000000000004,-4.814999999999999,4.814999999999999));
#220=CARTESIAN_POINT('',(1.430732848254213,-4.815000000000000,4.814999999999999));
#221=CARTESIAN_POINT('',(7.239000000000004,-4.815000000000000,-5.896480E-016));
#222=CARTESIAN_POINT('',(1.430732848254213,-4.815000000000000,-5.896480E-016));
#230=(BOUNDED_SURFACE()B_SPLINE_SURFACE(1,2,((#205,#207,#209,#211,#213,#215,#217,#219,#221),(#206,#208,#210,#212,#214,#216,#218,#220,#222)),.UNSPECIFIED.,.F.,.T.,.U.)B_SPLINE_SURFACE_WITH_KNOTS((2,2),(3,2,2,2,3),(-3.936335546196583,-2.730049533372950),(0.0,7.563384313517427,15.126768627034854,22.690152940552284,30.253537254069709),.UNSPECIFIED.)GEOMETRIC_REPRESENTATION_ITEM()RATIONAL_B_SPLINE_SURFACE(((1.0,0.707106781186548,1.0,0.707106781186548,1.0,0.707106781186548,1.0,0.707106781186548,1.0),(1.0,0.707106781186548,1.0,0.707106781186548,1.0,0.707106781186548,1.0,0.707106781186548,1.0)))REPRESENTATION_ITEM('')SURFACE());
#231=ORIENTED_EDGE('',*,*,#80,.T.);
#232=EDGE_LOOP('',(#231));
#233=FACE_OUTER_BOUND('',#232,.T.);
#234=ORIENTED_EDGE('',*,*,#169,.F.);
#235=EDGE_LOOP('',(#234));
#236=FACE_BOUND('',#235,.T.);
#237=ADVANCED_FACE('',(#233,#236),#230,.F.);
#238=CARTESIAN_POINT('',(6.606000000000001,9.956738E-016,0.0));
#239=DIRECTION('',(1.0,1.507226E-016,0.0));
#240=DIRECTION('',(0.0,0.0,-1.0));
#241=AXIS2_PLACEMENT_3D('',#238,#239,#240);
#242=TOROIDAL_SURFACE('',#241,5.463000000000000,0.760000000000000);
#243=CARTESIAN_POINT('',(6.606000000000000,6.223000000000001,0.0));
#244=VERTEX_POINT('',#243);
#245=CARTESIAN_POINT('',(6.606000000000001,9.956738E-016,0.0));
#246=DIRECTION('',(1.0,0.0,0.0));
#247=DIRECTION('',(0.0,-1.0,0.0));
#248=AXIS2_PLACEMENT_3D('',#245,#246,#247);
#249=CIRCLE('',#248,6.223000000000000);
#250=EDGE_CURVE('',#244,#244,#249,.T.);
#251=ORIENTED_EDGE('',*,*,#250,.T.);
#252=EDGE_LOOP('',(#251));
#253=FACE_OUTER_BOUND('',#252,.T.);
#254=ORIENTED_EDGE('',*,*,#197,.T.);
#255=EDGE_LOOP('',(#254));
#256=FACE_BOUND('',#255,.T.);
#257=ADVANCED_FACE('',(#253,#256),#242,.T.);
#258=CARTESIAN_POINT('',(6.383947966592939,9.622055E-016,0.0));
#259=DIRECTION('',(1.0,1.507226E-016,0.0));
#260=DIRECTION('',(0.0,1.0,0.0));
#261=AXIS2_PLACEMENT_3D('',#258,#259,#260);
#262=CYLINDRICAL_SURFACE('',#261,6.223000000000000);
#263=CARTESIAN_POINT('',(5.401895933185874,6.223000000000001,0.0));
#264=VERTEX_POINT('',#263);
#265=CARTESIAN_POINT('',(5.401895933185875,8.141881E-016,0.0));
#266=DIRECTION('',(1.0,0.0,0.0));
#267=DIRECTION('',(0.0,1.0,0.0));
#268=AXIS2_PLACEMENT_3D('',#265,#266,#267);
#269=CIRCLE('',#268,6.223000000000000);
#270=EDGE_CURVE('',#264,#264,#269,.T.);
#271=ORIENTED_EDGE('',*,*,#270,.T.);
#272=EDGE_LOOP('',(#271));
#273=FACE_OUTER_BOUND('',#272,.T.);
#274=ORIENTED_EDGE('',*,*,#250,.F.);
#275=EDGE_LOOP('',(#274));
#276=FACE_BOUND('',#275,.T.);
#277=ADVANCED_FACE('',(#273,#276),#262,.T.);
#278=CARTESIAN_POINT('',(0.200000000000001,3.014453E-017,0.0));
#279=DIRECTION('',(1.0,1.507226E-016,0.0));
#280=DIRECTION('',(0.0,0.0,-1.0));
#281=AXIS2_PLACEMENT_3D('',#278,#279,#280);
#282=TOROIDAL_SURFACE('',#281,5.102680073764545,0.200000000000000);
#283=CARTESIAN_POINT('',(-3.874503E-016,5.102680073764545,0.0));
#284=VERTEX_POINT('',#283);
#285=CARTESIAN_POINT('',(3.816392E-016,1.348151E-031,0.0));
#286=DIRECTION('',(1.0,0.0,0.0));
#287=DIRECTION('',(0.0,-1.0,0.0));
#288=AXIS2_PLACEMENT_3D('',#285,#286,#287);
#289=CIRCLE('',#288,5.102680073764545);
#290=EDGE_CURVE('',#284,#284,#289,.T.);
#291=ORIENTED_EDGE('',*,*,#290,.T.);
#292=EDGE_LOOP('',(#291));
#293=FACE_OUTER_BOUND('',#292,.T.);
#294=CARTESIAN_POINT('',(0.165270364466614,5.299641624366986,-1.297995E-015));
#295=VERTEX_POINT('',#294);
#296=CARTESIAN_POINT('',(0.165270364466615,-5.551115E-016,-6.489975E-016));
#297=DIRECTION('',(-1.0,0.0,0.0));
#298=DIRECTION('',(0.0,-1.0,0.0));
#299=AXIS2_PLACEMENT_3D('',#296,#297,#298);
#300=CIRCLE('',#299,5.299641624366986);
#301=EDGE_CURVE('',#295,#295,#300,.T.);
#302=ORIENTED_EDGE('',*,*,#301,.T.);
#303=EDGE_LOOP('',(#302));
#304=FACE_BOUND('',#303,.T.);
#305=ADVANCED_FACE('',(#293,#304),#282,.T.);
#306=CARTESIAN_POINT('',(2.700947966592938,4.070940E-016,0.0));
#307=DIRECTION('',(1.0,1.507226E-016,0.0));
#308=DIRECTION('',(0.0,1.0,0.0));
#309=AXIS2_PLACEMENT_3D('',#306,#307,#308);
#310=CONICAL_SURFACE('',#309,5.746750000000001,9.999999999999989);
#311=ORIENTED_EDGE('',*,*,#270,.F.);
#312=EDGE_LOOP('',(#311));
#313=FACE_OUTER_BOUND('',#312,.T.);
#314=ORIENTED_EDGE('',*,*,#301,.F.);
#315=EDGE_LOOP('',(#314));
#316=FACE_BOUND('',#315,.T.);
#317=ADVANCED_FACE('',(#313,#316),#310,.T.);
#318=CARTESIAN_POINT('',(0.0,2.635250000000000,0.0));
#319=DIRECTION('',(-1.0,0.0,0.0));
#320=DIRECTION('',(0.0,0.0,1.0));
#321=AXIS2_PLACEMENT_3D('',#318,#319,#320);
#322=PLANE('',#321);
#323=ORIENTED_EDGE('',*,*,#290,.F.);
#324=EDGE_LOOP('',(#323));
#325=FACE_OUTER_BOUND('',#324,.T.);
#326=ORIENTED_EDGE('',*,*,#149,.T.);
#327=EDGE_LOOP('',(#326));
#328=FACE_BOUND('',#327,.T.);
#329=ADVANCED_FACE('',(#325,#328),#322,.T.);
#330=CLOSED_SHELL('',(#95,#115,#156,#184,#204,#237,#257,#277,#305,#317,#329));
#331=MANIFOLD_SOLID_BREP('',#330);
#332=COLOUR_RGB('Metall - Stahl',0.639216005802155,0.639216005802155,0.686275005340576);
#333=FILL_AREA_STYLE_COLOUR('Metall - Stahl',#332);
#334=FILL_AREA_STYLE('Metall - Stahl',(#333));
#335=SURFACE_STYLE_FILL_AREA(#334);
#336=SURFACE_SIDE_STYLE('Metall - Stahl',(#335));
#337=SURFACE_STYLE_USAGE(.BOTH.,#336);
#338=PRESENTATION_STYLE_ASSIGNMENT((#337));
#339=STYLED_ITEM('',(#338),#331);
#340=MECHANICAL_DESIGN_GEOMETRIC_PRESENTATION_REPRESENTATION('',(#339),#36);
#341=ADVANCED_BREP_SHAPE_REPRESENTATION('ABSR',(#331),#36);
#342=SHAPE_REPRESENTATION_RELATIONSHIP('SRR','None',#341,#41);
ENDSEC;
END-ISO-10303-21;
