ISO-10303-21;
HEADER;
/****************************************************************
 * Generated by software with PDE/Lib inside                    *
 * PDElib Version v51a, created Thu 12/14/2006                  *
 * International Technegroup Inc. (www.iti-oh.com)              *
 ****************************************************************/
FILE_DESCRIPTION((''),'2;1');
FILE_NAME('\\\\VICISRV2\\am\\Vault,D-CL_VICI\\Tech-Support\\Dimension Fittings\\Step Dateien\\312566-EN1FPK External polymeric nut.stp','2008-08-08T08:08:18',('Franzp'),(''),'Autodesk Inventor 2008','Autodesk Inventor 2008','');
FILE_SCHEMA(('AUTOMOTIVE_DESIGN { 1 0 10303 214 1 1 1 1 }'));
ENDSEC;
DATA;
#5=APPLICATION_CONTEXT('automotive design');
#6=APPLICATION_PROTOCOL_DEFINITION('International Standard','automotive_design',2001,#5);
#7=PRODUCT_CONTEXT('',#5,'mechanical');
#8=PRODUCT('312566','312566',$,(#7));
#9=PRODUCT_RELATED_PRODUCT_CATEGORY('part',$,(#8));
#10=PRODUCT_DEFINITION_FORMATION('',$,#8);
#11=PRODUCT_DEFINITION_CONTEXT('part definition',#5,'design');
#12=PRODUCT_DEFINITION('',$,#10,#11);
#18=(NAMED_UNIT(*)PLANE_ANGLE_UNIT()SI_UNIT($,.RADIAN.));
#19=DIMENSIONAL_EXPONENTS(0.0,0.0,0.0,0.0,0.0,0.0,0.0);
#20=PLANE_ANGLE_MEASURE_WITH_UNIT(PLANE_ANGLE_MEASURE(0.017453292500000),#18);
#24=(CONVERSION_BASED_UNIT('DEGREE',#20)NAMED_UNIT(#19)PLANE_ANGLE_UNIT());
#28=(NAMED_UNIT(*)SI_UNIT($,.STERADIAN.)SOLID_ANGLE_UNIT());
#32=(LENGTH_UNIT()NAMED_UNIT(*)SI_UNIT(.MILLI.,.METRE.));
#34=UNCERTAINTY_MEASURE_WITH_UNIT(LENGTH_MEASURE(0.010000000000000),#32,'DISTANCE_ACCURACY_VALUE','');
#36=(GEOMETRIC_REPRESENTATION_CONTEXT(3)GLOBAL_UNCERTAINTY_ASSIGNED_CONTEXT((#34))GLOBAL_UNIT_ASSIGNED_CONTEXT((#24,#28,#32))REPRESENTATION_CONTEXT('None','None'));
#37=AXIS2_PLACEMENT_3D('',#38,#39,#40);
#38=CARTESIAN_POINT('',(0.0,0.0,0.0));
#39=DIRECTION('',(0.0,0.0,1.0));
#40=DIRECTION('',(1.0,0.0,0.0));
#41=SHAPE_REPRESENTATION('',(#37),#36);
#42=PRODUCT_DEFINITION_SHAPE('','',#12);
#43=SHAPE_DEFINITION_REPRESENTATION(#42,#41);
#49=(NAMED_UNIT(*)PLANE_ANGLE_UNIT()SI_UNIT($,.RADIAN.));
#50=DIMENSIONAL_EXPONENTS(0.0,0.0,0.0,0.0,0.0,0.0,0.0);
#51=PLANE_ANGLE_MEASURE_WITH_UNIT(PLANE_ANGLE_MEASURE(0.017453292500000),#49);
#55=(CONVERSION_BASED_UNIT('DEGREE',#51)NAMED_UNIT(#50)PLANE_ANGLE_UNIT());
#59=(NAMED_UNIT(*)SI_UNIT($,.STERADIAN.)SOLID_ANGLE_UNIT());
#63=(LENGTH_UNIT()NAMED_UNIT(*)SI_UNIT(.MILLI.,.METRE.));
#65=UNCERTAINTY_MEASURE_WITH_UNIT(LENGTH_MEASURE(0.000001000000000),#63,'DISTANCE_ACCURACY_VALUE','');
#67=(GEOMETRIC_REPRESENTATION_CONTEXT(3)GLOBAL_UNCERTAINTY_ASSIGNED_CONTEXT((#65))GLOBAL_UNIT_ASSIGNED_CONTEXT((#55,#59,#63))REPRESENTATION_CONTEXT('','3D'));
#68=CARTESIAN_POINT('',(9.270000000000001,1.135210E-015,0.0));
#69=DIRECTION('',(-1.0,-1.224606E-016,0.0));
#70=DIRECTION('',(0.0,-1.0,0.0));
#71=AXIS2_PLACEMENT_3D('',#68,#69,#70);
#72=CONICAL_SURFACE('',#71,4.507500000000000,45.000000000000028);
#73=CARTESIAN_POINT('',(9.015000000000002,4.762500000000001,5.832188E-016));
#74=VERTEX_POINT('',#73);
#75=CARTESIAN_POINT('',(9.015000000000002,1.103983E-015,0.0));
#76=DIRECTION('',(1.0,0.0,0.0));
#77=DIRECTION('',(0.0,-1.0,0.0));
#78=AXIS2_PLACEMENT_3D('',#75,#76,#77);
#79=CIRCLE('',#78,4.762500000000000);
#80=EDGE_CURVE('',#74,#74,#79,.T.);
#81=ORIENTED_EDGE('',*,*,#80,.T.);
#82=EDGE_LOOP('',(#81));
#83=FACE_OUTER_BOUND('',#82,.T.);
#84=CARTESIAN_POINT('',(9.525000000000002,4.252500000000002,-5.207639E-016));
#85=VERTEX_POINT('',#84);
#86=CARTESIAN_POINT('',(9.525000000000002,1.166438E-015,0.0));
#87=DIRECTION('',(-1.0,0.0,0.0));
#88=DIRECTION('',(0.0,-1.0,0.0));
#89=AXIS2_PLACEMENT_3D('',#86,#87,#88);
#90=CIRCLE('',#89,4.252500000000000);
#91=EDGE_CURVE('',#85,#85,#90,.T.);
#92=ORIENTED_EDGE('',*,*,#91,.T.);
#93=EDGE_LOOP('',(#92));
#94=FACE_BOUND('',#93,.T.);
#95=ADVANCED_FACE('',(#83,#94),#72,.T.);
#96=CARTESIAN_POINT('',(4.762500000000001,5.832188E-016,0.0));
#97=DIRECTION('',(1.0,1.224606E-016,0.0));
#98=DIRECTION('',(0.0,1.0,0.0));
#99=AXIS2_PLACEMENT_3D('',#96,#97,#98);
#100=CYLINDRICAL_SURFACE('',#99,4.762500000000000);
#101=CARTESIAN_POINT('',(0.510000000000000,4.762500000000000,-5.832188E-016));
#102=VERTEX_POINT('',#101);
#103=CARTESIAN_POINT('',(0.510000000000000,6.245492E-017,0.0));
#104=DIRECTION('',(-1.0,0.0,0.0));
#105=DIRECTION('',(0.0,-1.0,0.0));
#106=AXIS2_PLACEMENT_3D('',#103,#104,#105);
#107=CIRCLE('',#106,4.762500000000000);
#108=EDGE_CURVE('',#102,#102,#107,.T.);
#109=ORIENTED_EDGE('',*,*,#108,.F.);
#110=EDGE_LOOP('',(#109));
#111=FACE_OUTER_BOUND('',#110,.T.);
#112=ORIENTED_EDGE('',*,*,#80,.F.);
#113=EDGE_LOOP('',(#112));
#114=FACE_BOUND('',#113,.T.);
#115=ADVANCED_FACE('',(#111,#114),#100,.T.);
#116=CARTESIAN_POINT('',(9.525000000000002,2.381250000000001,0.0));
#117=DIRECTION('',(1.0,0.0,0.0));
#118=DIRECTION('',(0.0,0.0,-1.0));
#119=AXIS2_PLACEMENT_3D('',#116,#117,#118);
#120=PLANE('',#119);
#121=ORIENTED_EDGE('',*,*,#91,.F.);
#122=EDGE_LOOP('',(#121));
#123=FACE_OUTER_BOUND('',#122,.T.);
#124=CARTESIAN_POINT('',(9.525000000000002,2.475000000000001,0.0));
#125=VERTEX_POINT('',#124);
#126=CARTESIAN_POINT('',(9.525000000000002,1.166438E-015,0.0));
#127=DIRECTION('',(-1.0,0.0,0.0));
#128=DIRECTION('',(0.0,1.0,0.0));
#129=AXIS2_PLACEMENT_3D('',#126,#127,#128);
#130=CIRCLE('',#129,2.475000000000001);
#131=EDGE_CURVE('',#125,#125,#130,.T.);
#132=ORIENTED_EDGE('',*,*,#131,.T.);
#133=EDGE_LOOP('',(#132));
#134=FACE_BOUND('',#133,.T.);
#135=ADVANCED_FACE('',(#123,#134),#120,.T.);
#136=CARTESIAN_POINT('',(0.255000000000000,3.122746E-017,0.0));
#137=DIRECTION('',(1.0,1.224606E-016,0.0));
#138=DIRECTION('',(0.0,-1.0,0.0));
#139=AXIS2_PLACEMENT_3D('',#136,#137,#138);
#140=CONICAL_SURFACE('',#139,4.507500000000000,44.999999999999986);
#141=CARTESIAN_POINT('',(-2.432081E-016,4.252500000000000,5.207639E-016));
#142=VERTEX_POINT('',#141);
#143=CARTESIAN_POINT('',(2.775558E-016,7.703720E-032,0.0));
#144=DIRECTION('',(1.0,0.0,0.0));
#145=DIRECTION('',(0.0,-1.0,0.0));
#146=AXIS2_PLACEMENT_3D('',#143,#144,#145);
#147=CIRCLE('',#146,4.252500000000000);
#148=EDGE_CURVE('',#142,#142,#147,.T.);
#149=ORIENTED_EDGE('',*,*,#148,.T.);
#150=EDGE_LOOP('',(#149));
#151=FACE_OUTER_BOUND('',#150,.T.);
#152=ORIENTED_EDGE('',*,*,#108,.T.);
#153=EDGE_LOOP('',(#152));
#154=FACE_BOUND('',#153,.T.);
#155=ADVANCED_FACE('',(#151,#154),#140,.T.);
#156=CARTESIAN_POINT('',(-4.930381E-031,2.381250000000000,0.0));
#157=DIRECTION('',(-1.0,0.0,0.0));
#158=DIRECTION('',(0.0,0.0,1.0));
#159=AXIS2_PLACEMENT_3D('',#156,#157,#158);
#160=PLANE('',#159);
#161=ORIENTED_EDGE('',*,*,#148,.F.);
#162=EDGE_LOOP('',(#161));
#163=FACE_OUTER_BOUND('',#162,.T.);
#164=CARTESIAN_POINT('',(1.040915E-016,-0.850000000000000,-1.040915E-016));
#165=VERTEX_POINT('',#164);
#166=CARTESIAN_POINT('',(0.0,2.465190E-031,0.0));
#167=DIRECTION('',(1.0,0.0,0.0));
#168=DIRECTION('',(0.0,1.0,0.0));
#169=AXIS2_PLACEMENT_3D('',#166,#167,#168);
#170=CIRCLE('',#169,0.850000000000000);
#171=EDGE_CURVE('',#165,#165,#170,.T.);
#172=ORIENTED_EDGE('',*,*,#171,.T.);
#173=EDGE_LOOP('',(#172));
#174=FACE_BOUND('',#173,.T.);
#175=ADVANCED_FACE('',(#163,#174),#160,.T.);
#176=CARTESIAN_POINT('',(9.525000000000002,-2.475000000000000,-3.030901E-016));
#177=CARTESIAN_POINT('',(9.031000000000001,-1.980999999999999,-2.425945E-016));
#178=CARTESIAN_POINT('',(9.525000000000002,-2.475000000000000,-2.475000000000001));
#179=CARTESIAN_POINT('',(9.031000000000001,-1.980999999999998,-1.980999999999999));
#180=CARTESIAN_POINT('',(9.525000000000002,1.469528E-015,-2.475000000000001));
#181=CARTESIAN_POINT('',(9.031000000000001,1.348537E-015,-1.981000000000000));
#182=CARTESIAN_POINT('',(9.525000000000002,2.475000000000002,-2.475000000000001));
#183=CARTESIAN_POINT('',(9.031000000000001,1.981000000000001,-1.980999999999999));
#184=CARTESIAN_POINT('',(9.525000000000002,2.475000000000003,3.030901E-016));
#185=CARTESIAN_POINT('',(9.031000000000001,1.981000000000001,2.425945E-016));
#186=CARTESIAN_POINT('',(9.525000000000002,2.475000000000002,2.475000000000001));
#187=CARTESIAN_POINT('',(9.031000000000001,1.981000000000000,1.980999999999999));
#188=CARTESIAN_POINT('',(9.525000000000002,8.633475E-016,2.475000000000001));
#189=CARTESIAN_POINT('',(9.031000000000001,8.633475E-016,1.981000000000000));
#190=CARTESIAN_POINT('',(9.525000000000002,-2.475000000000000,2.475000000000001));
#191=CARTESIAN_POINT('',(9.031000000000001,-1.980999999999998,1.980999999999999));
#192=CARTESIAN_POINT('',(9.525000000000002,-2.475000000000000,-3.030901E-016));
#193=CARTESIAN_POINT('',(9.031000000000001,-1.980999999999999,-2.425945E-016));
#201=(BOUNDED_SURFACE()B_SPLINE_SURFACE(1,2,((#176,#178,#180,#182,#184,#186,#188,#190,#192),(#177,#179,#181,#183,#185,#187,#189,#191,#193)),.UNSPECIFIED.,.F.,.T.,.U.)B_SPLINE_SURFACE_WITH_KNOTS((2,2),(3,2,2,2,3),(-0.156782203728078,0.156782203728076),(0.0,3.499734216099029,6.999468432198058,10.499202648297087,13.998936864396116),.UNSPECIFIED.)GEOMETRIC_REPRESENTATION_ITEM()RATIONAL_B_SPLINE_SURFACE(((1.0,0.707106781186548,1.0,0.707106781186548,1.0,0.707106781186548,1.0,0.707106781186548,1.0),(1.0,0.707106781186548,1.0,0.707106781186548,1.0,0.707106781186548,1.0,0.707106781186548,1.0)))REPRESENTATION_ITEM('')SURFACE());
#202=ORIENTED_EDGE('',*,*,#131,.F.);
#203=EDGE_LOOP('',(#202));
#204=FACE_OUTER_BOUND('',#203,.T.);
#205=CARTESIAN_POINT('',(9.031000000000001,1.981000000000001,0.0));
#206=VERTEX_POINT('',#205);
#207=CARTESIAN_POINT('',(9.031000000000001,1.105942E-015,0.0));
#208=DIRECTION('',(1.0,0.0,0.0));
#209=DIRECTION('',(0.0,1.0,0.0));
#210=AXIS2_PLACEMENT_3D('',#207,#208,#209);
#211=CIRCLE('',#210,1.981000000000000);
#212=EDGE_CURVE('',#206,#206,#211,.T.);
#213=ORIENTED_EDGE('',*,*,#212,.F.);
#214=EDGE_LOOP('',(#213));
#215=FACE_BOUND('',#214,.T.);
#216=ADVANCED_FACE('',(#204,#215),#201,.F.);
#217=CARTESIAN_POINT('',(9.031000000000001,-1.980999999999999,-2.425945E-016));
#218=CARTESIAN_POINT('',(1.905000000000001,-1.981000000000000,-2.425945E-016));
#219=CARTESIAN_POINT('',(9.031000000000001,-1.980999999999998,-1.981000000000000));
#220=CARTESIAN_POINT('',(1.905000000000001,-1.980999999999999,-1.981000000000000));
#221=CARTESIAN_POINT('',(9.031000000000001,1.348537E-015,-1.981000000000000));
#222=CARTESIAN_POINT('',(1.905000000000000,4.758820E-016,-1.981000000000000));
#223=CARTESIAN_POINT('',(9.031000000000001,1.981000000000001,-1.980999999999999));
#224=CARTESIAN_POINT('',(1.905000000000000,1.981000000000000,-1.980999999999999));
#225=CARTESIAN_POINT('',(9.031000000000001,1.981000000000001,2.425945E-016));
#226=CARTESIAN_POINT('',(1.905000000000000,1.981000000000000,2.425945E-016));
#227=CARTESIAN_POINT('',(9.031000000000001,1.981000000000000,1.981000000000000));
#228=CARTESIAN_POINT('',(1.905000000000000,1.980999999999999,1.981000000000000));
#229=CARTESIAN_POINT('',(9.031000000000001,8.633475E-016,1.981000000000000));
#230=CARTESIAN_POINT('',(1.905000000000000,-9.307008E-018,1.981000000000000));
#231=CARTESIAN_POINT('',(9.031000000000001,-1.980999999999999,1.980999999999999));
#232=CARTESIAN_POINT('',(1.905000000000001,-1.980999999999999,1.980999999999999));
#233=CARTESIAN_POINT('',(9.031000000000001,-1.980999999999999,-2.425945E-016));
#234=CARTESIAN_POINT('',(1.905000000000001,-1.981000000000000,-2.425945E-016));
#242=(BOUNDED_SURFACE()B_SPLINE_SURFACE(1,2,((#217,#219,#221,#223,#225,#227,#229,#231,#233),(#218,#220,#222,#224,#226,#228,#230,#232,#234)),.UNSPECIFIED.,.F.,.T.,.U.)B_SPLINE_SURFACE_WITH_KNOTS((2,2),(3,2,2,2,3),(-1.673902069661787,1.923271075214539),(0.0,3.111747523380690,6.223495046761379,9.335242570142070,12.446990093522759),.UNSPECIFIED.)GEOMETRIC_REPRESENTATION_ITEM()RATIONAL_B_SPLINE_SURFACE(((1.0,0.707106781186548,1.0,0.707106781186548,1.0,0.707106781186548,1.0,0.707106781186548,1.0),(1.0,0.707106781186548,1.0,0.707106781186548,1.0,0.707106781186548,1.0,0.707106781186548,1.0)))REPRESENTATION_ITEM('')SURFACE());
#243=ORIENTED_EDGE('',*,*,#212,.T.);
#244=EDGE_LOOP('',(#243));
#245=FACE_OUTER_BOUND('',#244,.T.);
#246=CARTESIAN_POINT('',(1.905000000000001,1.981000000000000,0.0));
#247=VERTEX_POINT('',#246);
#248=CARTESIAN_POINT('',(1.905000000000001,2.332875E-016,0.0));
#249=DIRECTION('',(1.0,0.0,0.0));
#250=DIRECTION('',(0.0,1.0,0.0));
#251=AXIS2_PLACEMENT_3D('',#248,#249,#250);
#252=CIRCLE('',#251,1.981000000000000);
#253=EDGE_CURVE('',#247,#247,#252,.T.);
#254=ORIENTED_EDGE('',*,*,#253,.F.);
#255=EDGE_LOOP('',(#254));
#256=FACE_BOUND('',#255,.T.);
#257=ADVANCED_FACE('',(#245,#256),#242,.F.);
#258=CARTESIAN_POINT('',(1.905000000000001,-1.981000000000000,1.981000000000000));
#259=CARTESIAN_POINT('',(1.905000000000001,1.981000000000000,1.981000000000000));
#260=CARTESIAN_POINT('',(1.905000000000001,-1.981000000000000,-1.981000000000000));
#261=CARTESIAN_POINT('',(1.905000000000001,1.981000000000000,-1.981000000000000));
#262=B_SPLINE_SURFACE_WITH_KNOTS('',1,1,((#258,#260),(#259,#261)),.UNSPECIFIED.,.F.,.F.,.U.,(2,2),(2,2),(0.0,3.962000000000000),(0.0,3.962000000000000),.UNSPECIFIED.);
#263=ORIENTED_EDGE('',*,*,#253,.T.);
#264=EDGE_LOOP('',(#263));
#265=FACE_OUTER_BOUND('',#264,.T.);
#266=CARTESIAN_POINT('',(1.905000000000001,-0.850000000000000,-1.040915E-016));
#267=VERTEX_POINT('',#266);
#268=CARTESIAN_POINT('',(1.905000000000001,2.332875E-016,0.0));
#269=DIRECTION('',(1.0,0.0,0.0));
#270=DIRECTION('',(0.0,1.0,0.0));
#271=AXIS2_PLACEMENT_3D('',#268,#269,#270);
#272=CIRCLE('',#271,0.850000000000000);
#273=EDGE_CURVE('',#267,#267,#272,.T.);
#274=ORIENTED_EDGE('',*,*,#273,.F.);
#275=EDGE_LOOP('',(#274));
#276=FACE_BOUND('',#275,.T.);
#277=ADVANCED_FACE('',(#265,#276),#262,.F.);
#278=CARTESIAN_POINT('',(1.905000000000001,-0.850000000000000,-1.040915E-016));
#279=CARTESIAN_POINT('',(0.0,-0.850000000000000,-1.040915E-016));
#280=CARTESIAN_POINT('',(1.905000000000001,-0.850000000000000,-0.850000000000000));
#281=CARTESIAN_POINT('',(-1.274712E-032,-0.850000000000000,-0.850000000000000));
#282=CARTESIAN_POINT('',(1.905000000000001,3.373791E-016,-0.850000000000000));
#283=CARTESIAN_POINT('',(-1.274712E-032,1.040915E-016,-0.850000000000000));
#284=CARTESIAN_POINT('',(1.905000000000001,0.850000000000000,-0.850000000000000));
#285=CARTESIAN_POINT('',(-1.274712E-032,0.850000000000000,-0.850000000000000));
#286=CARTESIAN_POINT('',(1.905000000000001,0.850000000000000,1.040915E-016));
#287=CARTESIAN_POINT('',(0.0,0.850000000000000,1.040915E-016));
#288=CARTESIAN_POINT('',(1.905000000000001,0.850000000000000,0.850000000000000));
#289=CARTESIAN_POINT('',(1.274712E-032,0.850000000000000,0.850000000000000));
#290=CARTESIAN_POINT('',(1.905000000000001,1.291960E-016,0.850000000000000));
#291=CARTESIAN_POINT('',(1.274712E-032,-1.040915E-016,0.850000000000000));
#292=CARTESIAN_POINT('',(1.905000000000001,-0.850000000000000,0.850000000000000));
#293=CARTESIAN_POINT('',(1.274712E-032,-0.850000000000000,0.850000000000000));
#294=CARTESIAN_POINT('',(1.905000000000001,-0.850000000000000,-1.040915E-016));
#295=CARTESIAN_POINT('',(0.0,-0.850000000000000,-1.040915E-016));
#303=(BOUNDED_SURFACE()B_SPLINE_SURFACE(1,2,((#278,#280,#282,#284,#286,#288,#290,#292,#294),(#279,#281,#283,#285,#287,#289,#291,#293,#295)),.UNSPECIFIED.,.F.,.T.,.U.)B_SPLINE_SURFACE_WITH_KNOTS((2,2),(3,2,2,2,3),(-10.444451696580655,-8.203275225992419),(0.0,1.335176877775662,2.670353755551325,4.005530633326987,5.340707511102649),.UNSPECIFIED.)GEOMETRIC_REPRESENTATION_ITEM()RATIONAL_B_SPLINE_SURFACE(((1.0,0.707106781186548,1.0,0.707106781186548,1.0,0.707106781186548,1.0,0.707106781186548,1.0),(1.0,0.707106781186548,1.0,0.707106781186548,1.0,0.707106781186548,1.0,0.707106781186548,1.0)))REPRESENTATION_ITEM('')SURFACE());
#304=ORIENTED_EDGE('',*,*,#273,.T.);
#305=EDGE_LOOP('',(#304));
#306=FACE_OUTER_BOUND('',#305,.T.);
#307=ORIENTED_EDGE('',*,*,#171,.F.);
#308=EDGE_LOOP('',(#307));
#309=FACE_BOUND('',#308,.T.);
#310=ADVANCED_FACE('',(#306,#309),#303,.F.);
#311=CLOSED_SHELL('',(#95,#115,#135,#155,#175,#216,#257,#277,#310));
#312=MANIFOLD_SOLID_BREP('',#311);
#313=COLOUR_RGB('',0.776470661163330,0.741176486015320,0.647058844566345);
#314=DRAUGHTING_PRE_DEFINED_CURVE_FONT('continuous');
#315=CURVE_STYLE('',#314,POSITIVE_LENGTH_MEASURE(0.100000000000000),#313);
#316=FILL_AREA_STYLE_COLOUR('',#313);
#317=FILL_AREA_STYLE('',(#316));
#318=SURFACE_STYLE_FILL_AREA(#317);
#319=SURFACE_SIDE_STYLE('',(#318));
#320=SURFACE_STYLE_USAGE(.BOTH.,#319);
#321=PRESENTATION_STYLE_ASSIGNMENT((#315,#320));
#322=STYLED_ITEM('',(#321),#115);
#323=MECHANICAL_DESIGN_GEOMETRIC_PRESENTATION_REPRESENTATION('',(#322,#331),#67);
#324=COLOUR_RGB('Beige (hell)',0.780391991138458,0.745097994804382,0.647059023380280);
#325=FILL_AREA_STYLE_COLOUR('Beige (hell)',#324);
#326=FILL_AREA_STYLE('Beige (hell)',(#325));
#327=SURFACE_STYLE_FILL_AREA(#326);
#328=SURFACE_SIDE_STYLE('Beige (hell)',(#327));
#329=SURFACE_STYLE_USAGE(.BOTH.,#328);
#330=PRESENTATION_STYLE_ASSIGNMENT((#329));
#331=STYLED_ITEM('',(#330),#312);
#332=ADVANCED_BREP_SHAPE_REPRESENTATION('ABSR',(#312),#36);
#333=SHAPE_REPRESENTATION_RELATIONSHIP('SRR','None',#332,#41);
ENDSEC;
END-ISO-10303-21;
