ISO-10303-21;
HEADER;
/****************************************************************
 * Generated by software with PDE/Lib inside                    *
 * PDElib Version v51a, created Tue 01/15/2008                  *
 * International Technegroup Inc. (www.iti-oh.com)              *
 ****************************************************************/
FILE_DESCRIPTION((''),'2;1');
FILE_NAME('\\\\VICIVMCAD12\\am\\Vault,D-CL_VICI\\Tech-Support\\Dimension Fittings\\5 Allg-Dokument\\313167.stp','2010-01-22T12:22:52',('Franzp'),(''),'Autodesk Inventor 2009','Autodesk Inventor 2009','');
FILE_SCHEMA(('AUTOMOTIVE_DESIGN { 1 0 10303 214 1 1 1 1 }'));
ENDSEC;
DATA;
#5=APPLICATION_CONTEXT('automotive design');
#6=APPLICATION_PROTOCOL_DEFINITION('International Standard','automotive_design',2001,#5);
#7=PRODUCT_CONTEXT('',#5,'mechanical');
#8=PRODUCT('313167','313167',$,(#7));
#9=PRODUCT_RELATED_PRODUCT_CATEGORY('part',$,(#8));
#10=PRODUCT_DEFINITION_FORMATION('',$,#8);
#11=PRODUCT_DEFINITION_CONTEXT('part definition',#5,'design');
#12=PRODUCT_DEFINITION('',$,#10,#11);
#18=(NAMED_UNIT(*)PLANE_ANGLE_UNIT()SI_UNIT($,.RADIAN.));
#19=DIMENSIONAL_EXPONENTS(0.0,0.0,0.0,0.0,0.0,0.0,0.0);
#20=PLANE_ANGLE_MEASURE_WITH_UNIT(PLANE_ANGLE_MEASURE(0.017453292500000),#18);
#24=(CONVERSION_BASED_UNIT('DEGREE',#20)NAMED_UNIT(#19)PLANE_ANGLE_UNIT());
#28=(NAMED_UNIT(*)SI_UNIT($,.STERADIAN.)SOLID_ANGLE_UNIT());
#32=(LENGTH_UNIT()NAMED_UNIT(*)SI_UNIT(.MILLI.,.METRE.));
#34=UNCERTAINTY_MEASURE_WITH_UNIT(LENGTH_MEASURE(0.010000000000000),#32,'DISTANCE_ACCURACY_VALUE','');
#36=(GEOMETRIC_REPRESENTATION_CONTEXT(3)GLOBAL_UNCERTAINTY_ASSIGNED_CONTEXT((#34))GLOBAL_UNIT_ASSIGNED_CONTEXT((#24,#28,#32))REPRESENTATION_CONTEXT('None','None'));
#37=AXIS2_PLACEMENT_3D('',#38,#39,#40);
#38=CARTESIAN_POINT('',(0.0,0.0,0.0));
#39=DIRECTION('',(0.0,0.0,1.0));
#40=DIRECTION('',(1.0,0.0,0.0));
#41=SHAPE_REPRESENTATION('',(#37),#36);
#42=PRODUCT_DEFINITION_SHAPE('','',#12);
#43=SHAPE_DEFINITION_REPRESENTATION(#42,#41);
#49=(NAMED_UNIT(*)PLANE_ANGLE_UNIT()SI_UNIT($,.RADIAN.));
#50=DIMENSIONAL_EXPONENTS(0.0,0.0,0.0,0.0,0.0,0.0,0.0);
#51=PLANE_ANGLE_MEASURE_WITH_UNIT(PLANE_ANGLE_MEASURE(0.017453292500000),#49);
#55=(CONVERSION_BASED_UNIT('DEGREE',#51)NAMED_UNIT(#50)PLANE_ANGLE_UNIT());
#59=(NAMED_UNIT(*)SI_UNIT($,.STERADIAN.)SOLID_ANGLE_UNIT());
#63=(LENGTH_UNIT()NAMED_UNIT(*)SI_UNIT(.MILLI.,.METRE.));
#65=UNCERTAINTY_MEASURE_WITH_UNIT(LENGTH_MEASURE(0.000001000000000),#63,'DISTANCE_ACCURACY_VALUE','');
#67=(GEOMETRIC_REPRESENTATION_CONTEXT(3)GLOBAL_UNCERTAINTY_ASSIGNED_CONTEXT((#65))GLOBAL_UNIT_ASSIGNED_CONTEXT((#55,#59,#63))REPRESENTATION_CONTEXT('','3D'));
#68=CARTESIAN_POINT('',(-2.775558E-017,0.735000000000000,-9.000857E-017));
#69=CARTESIAN_POINT('',(0.335000000000000,0.400000000000000,-4.898425E-017));
#70=CARTESIAN_POINT('',(-2.775558E-017,0.735000000000000,-0.735000000000000));
#71=CARTESIAN_POINT('',(0.335000000000000,0.400000000000000,-0.400000000000000));
#72=CARTESIAN_POINT('',(-2.775558E-017,-9.000857E-017,-0.735000000000000));
#73=CARTESIAN_POINT('',(0.335000000000000,-4.898425E-017,-0.400000000000000));
#74=CARTESIAN_POINT('',(-2.775558E-017,-0.735000000000000,-0.735000000000000));
#75=CARTESIAN_POINT('',(0.335000000000000,-0.400000000000000,-0.400000000000000));
#76=CARTESIAN_POINT('',(-2.775558E-017,-0.735000000000000,9.000857E-017));
#77=CARTESIAN_POINT('',(0.335000000000000,-0.400000000000000,4.898425E-017));
#78=CARTESIAN_POINT('',(-2.775558E-017,-0.735000000000000,0.735000000000000));
#79=CARTESIAN_POINT('',(0.335000000000000,-0.400000000000000,0.400000000000000));
#80=CARTESIAN_POINT('',(-2.775558E-017,9.000857E-017,0.735000000000000));
#81=CARTESIAN_POINT('',(0.335000000000000,4.898425E-017,0.400000000000000));
#82=CARTESIAN_POINT('',(-2.775558E-017,0.735000000000000,0.735000000000000));
#83=CARTESIAN_POINT('',(0.335000000000000,0.400000000000000,0.400000000000000));
#84=CARTESIAN_POINT('',(-2.775558E-017,0.735000000000000,-9.000857E-017));
#85=CARTESIAN_POINT('',(0.335000000000000,0.400000000000000,-4.898425E-017));
#93=(BOUNDED_SURFACE()B_SPLINE_SURFACE(1,2,((#68,#70,#72,#74,#76,#78,#80,#82,#84),(#69,#71,#73,#75,#77,#79,#81,#83,#85)),.UNSPECIFIED.,.F.,.T.,.U.)B_SPLINE_SURFACE_WITH_KNOTS((2,2),(3,2,2,2,3),(-0.417411051449328,0.417411051449328),(0.0,0.891426915456104,1.782853830912208,2.674280746368312,3.565707661824415),.UNSPECIFIED.)GEOMETRIC_REPRESENTATION_ITEM()RATIONAL_B_SPLINE_SURFACE(((1.0,0.707106781186548,1.0,0.707106781186548,1.0,0.707106781186548,1.0,0.707106781186548,1.0),(1.0,0.707106781186548,1.0,0.707106781186548,1.0,0.707106781186548,1.0,0.707106781186548,1.0)))REPRESENTATION_ITEM('')SURFACE());
#94=CARTESIAN_POINT('',(0.0,-0.735000000000000,0.0));
#95=VERTEX_POINT('',#94);
#96=CARTESIAN_POINT('',(0.0,0.0,0.0));
#97=DIRECTION('',(1.0,0.0,0.0));
#98=DIRECTION('',(0.0,-1.0,0.0));
#99=AXIS2_PLACEMENT_3D('',#96,#97,#98);
#100=CIRCLE('',#99,0.735000000000000);
#101=EDGE_CURVE('',#95,#95,#100,.T.);
#102=ORIENTED_EDGE('',*,*,#101,.F.);
#103=EDGE_LOOP('',(#102));
#104=FACE_OUTER_BOUND('',#103,.T.);
#105=CARTESIAN_POINT('',(0.335000000000000,-0.400000000000000,0.0));
#106=VERTEX_POINT('',#105);
#107=CARTESIAN_POINT('',(0.335000000000000,0.0,0.0));
#108=DIRECTION('',(-1.0,0.0,0.0));
#109=DIRECTION('',(0.0,-1.0,0.0));
#110=AXIS2_PLACEMENT_3D('',#107,#108,#109);
#111=CIRCLE('',#110,0.400000000000000);
#112=EDGE_CURVE('',#106,#106,#111,.T.);
#113=ORIENTED_EDGE('',*,*,#112,.F.);
#114=EDGE_LOOP('',(#113));
#115=FACE_BOUND('',#114,.T.);
#116=ADVANCED_FACE('',(#104,#115),#93,.F.);
#117=CARTESIAN_POINT('',(0.334999999999999,0.400000000000000,-4.898425E-017));
#118=CARTESIAN_POINT('',(7.620000000000000,0.400000000000000,-4.898425E-017));
#119=CARTESIAN_POINT('',(0.334999999999999,0.400000000000000,-0.400000000000000));
#120=CARTESIAN_POINT('',(7.620000000000000,0.400000000000000,-0.400000000000000));
#121=CARTESIAN_POINT('',(0.334999999999999,-4.898425E-017,-0.400000000000000));
#122=CARTESIAN_POINT('',(7.620000000000000,-4.898425E-017,-0.400000000000000));
#123=CARTESIAN_POINT('',(0.334999999999999,-0.400000000000000,-0.400000000000000));
#124=CARTESIAN_POINT('',(7.620000000000000,-0.400000000000000,-0.400000000000000));
#125=CARTESIAN_POINT('',(0.334999999999999,-0.400000000000000,4.898425E-017));
#126=CARTESIAN_POINT('',(7.620000000000000,-0.400000000000000,4.898425E-017));
#127=CARTESIAN_POINT('',(0.334999999999999,-0.400000000000000,0.400000000000000));
#128=CARTESIAN_POINT('',(7.620000000000000,-0.400000000000000,0.400000000000000));
#129=CARTESIAN_POINT('',(0.334999999999999,4.898425E-017,0.400000000000000));
#130=CARTESIAN_POINT('',(7.620000000000000,4.898425E-017,0.400000000000000));
#131=CARTESIAN_POINT('',(0.334999999999999,0.400000000000000,0.400000000000000));
#132=CARTESIAN_POINT('',(7.620000000000000,0.400000000000000,0.400000000000000));
#133=CARTESIAN_POINT('',(0.334999999999999,0.400000000000000,-4.898425E-017));
#134=CARTESIAN_POINT('',(7.620000000000000,0.400000000000000,-4.898425E-017));
#142=(BOUNDED_SURFACE()B_SPLINE_SURFACE(1,2,((#117,#119,#121,#123,#125,#127,#129,#131,#133),(#118,#120,#122,#124,#126,#128,#130,#132,#134)),.UNSPECIFIED.,.F.,.T.,.U.)B_SPLINE_SURFACE_WITH_KNOTS((2,2),(3,2,2,2,3),(-22.237564734470414,-4.025064734470416),(0.0,0.628318530717959,1.256637061435918,1.884955592153876,2.513274122871835),.UNSPECIFIED.)GEOMETRIC_REPRESENTATION_ITEM()RATIONAL_B_SPLINE_SURFACE(((1.0,0.707106781186548,1.0,0.707106781186548,1.0,0.707106781186548,1.0,0.707106781186548,1.0),(1.0,0.707106781186548,1.0,0.707106781186548,1.0,0.707106781186548,1.0,0.707106781186548,1.0)))REPRESENTATION_ITEM('')SURFACE());
#143=CARTESIAN_POINT('',(7.620000000000000,0.400000000000000,-4.898425E-017));
#144=VERTEX_POINT('',#143);
#145=CARTESIAN_POINT('',(7.620000000000000,0.0,0.0));
#146=DIRECTION('',(-1.0,0.0,0.0));
#147=DIRECTION('',(0.0,-1.0,0.0));
#148=AXIS2_PLACEMENT_3D('',#145,#146,#147);
#149=CIRCLE('',#148,0.400000000000000);
#150=EDGE_CURVE('',#144,#144,#149,.T.);
#151=ORIENTED_EDGE('',*,*,#150,.F.);
#152=EDGE_LOOP('',(#151));
#153=FACE_OUTER_BOUND('',#152,.T.);
#154=ORIENTED_EDGE('',*,*,#112,.T.);
#155=EDGE_LOOP('',(#154));
#156=FACE_BOUND('',#155,.T.);
#157=ADVANCED_FACE('',(#153,#156),#142,.F.);
#158=CARTESIAN_POINT('',(5.562600000000001,0.0,0.0));
#159=DIRECTION('',(1.0,0.0,0.0));
#160=DIRECTION('',(0.0,0.0,-1.0));
#161=AXIS2_PLACEMENT_3D('',#158,#159,#160);
#162=TOROIDAL_SURFACE('',#161,0.949472831029031,0.177800000000000);
#163=CARTESIAN_POINT('',(5.602596297462340,1.122715828547846,0.0));
#164=VERTEX_POINT('',#163);
#165=CARTESIAN_POINT('',(5.602596297462340,0.0,-1.374885E-016));
#166=DIRECTION('',(1.0,0.0,0.0));
#167=DIRECTION('',(0.0,-1.0,0.0));
#168=AXIS2_PLACEMENT_3D('',#165,#166,#167);
#169=CIRCLE('',#168,1.122715828547846);
#170=EDGE_CURVE('',#164,#164,#169,.T.);
#171=ORIENTED_EDGE('',*,*,#170,.T.);
#172=EDGE_LOOP('',(#171));
#173=FACE_OUTER_BOUND('',#172,.T.);
#174=CARTESIAN_POINT('',(5.740400000000001,0.949472831029031,-2.325461E-016));
#175=VERTEX_POINT('',#174);
#176=CARTESIAN_POINT('',(5.740400000000001,0.0,0.0));
#177=DIRECTION('',(-1.0,0.0,0.0));
#178=DIRECTION('',(0.0,-1.0,0.0));
#179=AXIS2_PLACEMENT_3D('',#176,#177,#178);
#180=CIRCLE('',#179,0.949472831029031);
#181=EDGE_CURVE('',#175,#175,#180,.T.);
#182=ORIENTED_EDGE('',*,*,#181,.T.);
#183=EDGE_LOOP('',(#182));
#184=FACE_BOUND('',#183,.T.);
#185=ADVANCED_FACE('',(#173,#184),#162,.T.);
#186=CARTESIAN_POINT('',(4.114800000000001,0.0,0.0));
#187=DIRECTION('',(-1.0,0.0,0.0));
#188=DIRECTION('',(0.0,1.0,0.0));
#189=AXIS2_PLACEMENT_3D('',#186,#187,#188);
#190=CONICAL_SURFACE('',#189,1.466200668506286,12.999999999999986);
#191=CARTESIAN_POINT('',(2.489200000000000,1.841500000000001,0.0));
#192=VERTEX_POINT('',#191);
#193=CARTESIAN_POINT('',(2.489200000000000,0.0,0.0));
#194=DIRECTION('',(1.0,0.0,0.0));
#195=DIRECTION('',(0.0,1.0,0.0));
#196=AXIS2_PLACEMENT_3D('',#193,#194,#195);
#197=CIRCLE('',#196,1.841500000000001);
#198=EDGE_CURVE('',#192,#192,#197,.T.);
#199=ORIENTED_EDGE('',*,*,#198,.T.);
#200=EDGE_LOOP('',(#199));
#201=FACE_OUTER_BOUND('',#200,.T.);
#202=ORIENTED_EDGE('',*,*,#170,.F.);
#203=EDGE_LOOP('',(#202));
#204=FACE_BOUND('',#203,.T.);
#205=ADVANCED_FACE('',(#201,#204),#190,.T.);
#206=CARTESIAN_POINT('',(5.740400000000001,0.932800668506286,0.0));
#207=DIRECTION('',(1.0,0.0,0.0));
#208=DIRECTION('',(0.0,0.0,-1.0));
#209=AXIS2_PLACEMENT_3D('',#206,#207,#208);
#210=PLANE('',#209);
#211=ORIENTED_EDGE('',*,*,#181,.F.);
#212=EDGE_LOOP('',(#211));
#213=FACE_OUTER_BOUND('',#212,.T.);
#214=CARTESIAN_POINT('',(5.740400000000001,0.774700000000001,0.0));
#215=VERTEX_POINT('',#214);
#216=CARTESIAN_POINT('',(5.740400000000001,0.0,0.0));
#217=DIRECTION('',(1.0,0.0,0.0));
#218=DIRECTION('',(0.0,1.0,0.0));
#219=AXIS2_PLACEMENT_3D('',#216,#217,#218);
#220=CIRCLE('',#219,0.774700000000001);
#221=EDGE_CURVE('',#215,#215,#220,.T.);
#222=ORIENTED_EDGE('',*,*,#221,.F.);
#223=EDGE_LOOP('',(#222));
#224=FACE_BOUND('',#223,.T.);
#225=ADVANCED_FACE('',(#213,#224),#210,.T.);
#226=CARTESIAN_POINT('',(1.397000000000000,0.0,0.0));
#227=DIRECTION('',(1.0,0.0,0.0));
#228=DIRECTION('',(0.0,0.0,-1.0));
#229=AXIS2_PLACEMENT_3D('',#226,#227,#228);
#230=TOROIDAL_SURFACE('',#229,1.460500000000001,0.381000000000000);
#231=CARTESIAN_POINT('',(1.016000000000000,1.460500000000001,0.0));
#232=VERTEX_POINT('',#231);
#233=CARTESIAN_POINT('',(1.016000000000000,0.0,0.0));
#234=DIRECTION('',(1.0,0.0,0.0));
#235=DIRECTION('',(0.0,-1.0,0.0));
#236=AXIS2_PLACEMENT_3D('',#233,#234,#235);
#237=CIRCLE('',#236,1.460500000000001);
#238=EDGE_CURVE('',#232,#232,#237,.T.);
#239=ORIENTED_EDGE('',*,*,#238,.T.);
#240=EDGE_LOOP('',(#239));
#241=FACE_OUTER_BOUND('',#240,.T.);
#242=CARTESIAN_POINT('',(1.397000000000000,1.841500000000001,-4.510225E-016));
#243=VERTEX_POINT('',#242);
#244=CARTESIAN_POINT('',(1.397000000000000,0.0,0.0));
#245=DIRECTION('',(-1.0,0.0,0.0));
#246=DIRECTION('',(0.0,-1.0,0.0));
#247=AXIS2_PLACEMENT_3D('',#244,#245,#246);
#248=CIRCLE('',#247,1.841500000000001);
#249=EDGE_CURVE('',#243,#243,#248,.T.);
#250=ORIENTED_EDGE('',*,*,#249,.T.);
#251=EDGE_LOOP('',(#250));
#252=FACE_BOUND('',#251,.T.);
#253=ADVANCED_FACE('',(#241,#252),#230,.T.);
#254=CARTESIAN_POINT('',(1.016000000000000,1.308100000000001,0.0));
#255=DIRECTION('',(-1.0,0.0,0.0));
#256=DIRECTION('',(0.0,0.0,1.0));
#257=AXIS2_PLACEMENT_3D('',#254,#255,#256);
#258=PLANE('',#257);
#259=ORIENTED_EDGE('',*,*,#238,.F.);
#260=EDGE_LOOP('',(#259));
#261=FACE_OUTER_BOUND('',#260,.T.);
#262=CARTESIAN_POINT('',(1.016000000000000,0.774700000000000,0.0));
#263=VERTEX_POINT('',#262);
#264=CARTESIAN_POINT('',(1.016000000000000,0.0,0.0));
#265=DIRECTION('',(1.0,0.0,0.0));
#266=DIRECTION('',(0.0,1.0,0.0));
#267=AXIS2_PLACEMENT_3D('',#264,#265,#266);
#268=CIRCLE('',#267,0.774700000000000);
#269=EDGE_CURVE('',#263,#263,#268,.T.);
#270=ORIENTED_EDGE('',*,*,#269,.T.);
#271=EDGE_LOOP('',(#270));
#272=FACE_BOUND('',#271,.T.);
#273=ADVANCED_FACE('',(#261,#272),#258,.T.);
#274=CARTESIAN_POINT('',(1.752600000000000,0.0,0.0));
#275=DIRECTION('',(1.0,0.0,0.0));
#276=DIRECTION('',(0.0,1.0,0.0));
#277=AXIS2_PLACEMENT_3D('',#274,#275,#276);
#278=CYLINDRICAL_SURFACE('',#277,1.841500000000001);
#279=ORIENTED_EDGE('',*,*,#198,.F.);
#280=EDGE_LOOP('',(#279));
#281=FACE_OUTER_BOUND('',#280,.T.);
#282=ORIENTED_EDGE('',*,*,#249,.F.);
#283=EDGE_LOOP('',(#282));
#284=FACE_BOUND('',#283,.T.);
#285=ADVANCED_FACE('',(#281,#284),#278,.T.);
#286=CARTESIAN_POINT('',(0.508000000000000,0.0,0.0));
#287=DIRECTION('',(1.0,0.0,0.0));
#288=DIRECTION('',(0.0,1.0,0.0));
#289=AXIS2_PLACEMENT_3D('',#286,#287,#288);
#290=CYLINDRICAL_SURFACE('',#289,0.774700000000000);
#291=ORIENTED_EDGE('',*,*,#269,.F.);
#292=EDGE_LOOP('',(#291));
#293=FACE_OUTER_BOUND('',#292,.T.);
#294=CARTESIAN_POINT('',(0.0,0.774700000000000,0.0));
#295=VERTEX_POINT('',#294);
#296=CARTESIAN_POINT('',(0.0,0.0,0.0));
#297=DIRECTION('',(1.0,0.0,0.0));
#298=DIRECTION('',(0.0,1.0,0.0));
#299=AXIS2_PLACEMENT_3D('',#296,#297,#298);
#300=CIRCLE('',#299,0.774700000000000);
#301=EDGE_CURVE('',#295,#295,#300,.T.);
#302=ORIENTED_EDGE('',*,*,#301,.T.);
#303=EDGE_LOOP('',(#302));
#304=FACE_BOUND('',#303,.T.);
#305=ADVANCED_FACE('',(#293,#304),#290,.T.);
#306=CARTESIAN_POINT('',(6.680200000000001,0.0,0.0));
#307=DIRECTION('',(1.0,0.0,0.0));
#308=DIRECTION('',(0.0,1.0,0.0));
#309=AXIS2_PLACEMENT_3D('',#306,#307,#308);
#310=CYLINDRICAL_SURFACE('',#309,0.774700000000001);
#311=CARTESIAN_POINT('',(7.620000000000000,0.774700000000002,0.0));
#312=VERTEX_POINT('',#311);
#313=CARTESIAN_POINT('',(7.620000000000000,0.0,0.0));
#314=DIRECTION('',(1.0,0.0,0.0));
#315=DIRECTION('',(0.0,1.0,0.0));
#316=AXIS2_PLACEMENT_3D('',#313,#314,#315);
#317=CIRCLE('',#316,0.774700000000002);
#318=EDGE_CURVE('',#312,#312,#317,.T.);
#319=ORIENTED_EDGE('',*,*,#318,.F.);
#320=EDGE_LOOP('',(#319));
#321=FACE_OUTER_BOUND('',#320,.T.);
#322=ORIENTED_EDGE('',*,*,#221,.T.);
#323=EDGE_LOOP('',(#322));
#324=FACE_BOUND('',#323,.T.);
#325=ADVANCED_FACE('',(#321,#324),#310,.T.);
#326=CARTESIAN_POINT('',(7.620000000000000,0.387350000000001,0.0));
#327=DIRECTION('',(1.0,0.0,0.0));
#328=DIRECTION('',(0.0,0.0,-1.0));
#329=AXIS2_PLACEMENT_3D('',#326,#327,#328);
#330=PLANE('',#329);
#331=ORIENTED_EDGE('',*,*,#318,.T.);
#332=EDGE_LOOP('',(#331));
#333=FACE_OUTER_BOUND('',#332,.T.);
#334=ORIENTED_EDGE('',*,*,#150,.T.);
#335=EDGE_LOOP('',(#334));
#336=FACE_BOUND('',#335,.T.);
#337=ADVANCED_FACE('',(#333,#336),#330,.T.);
#338=CARTESIAN_POINT('',(0.0,0.387350000000000,0.0));
#339=DIRECTION('',(-1.0,0.0,0.0));
#340=DIRECTION('',(0.0,0.0,1.0));
#341=AXIS2_PLACEMENT_3D('',#338,#339,#340);
#342=PLANE('',#341);
#343=ORIENTED_EDGE('',*,*,#301,.F.);
#344=EDGE_LOOP('',(#343));
#345=FACE_OUTER_BOUND('',#344,.T.);
#346=ORIENTED_EDGE('',*,*,#101,.T.);
#347=EDGE_LOOP('',(#346));
#348=FACE_BOUND('',#347,.T.);
#349=ADVANCED_FACE('',(#345,#348),#342,.T.);
#350=CLOSED_SHELL('',(#116,#157,#185,#205,#225,#253,#273,#285,#305,#325,#337,#349));
#351=MANIFOLD_SOLID_BREP('',#350);
#352=COLOUR_RGB('Beige (hell)',0.780391991138458,0.745097994804382,0.647059023380280);
#353=FILL_AREA_STYLE_COLOUR('Beige (hell)',#352);
#354=FILL_AREA_STYLE('Beige (hell)',(#353));
#355=SURFACE_STYLE_FILL_AREA(#354);
#356=SURFACE_SIDE_STYLE('Beige (hell)',(#355));
#357=SURFACE_STYLE_USAGE(.BOTH.,#356);
#358=PRESENTATION_STYLE_ASSIGNMENT((#357));
#359=STYLED_ITEM('',(#358),#351);
#360=MECHANICAL_DESIGN_GEOMETRIC_PRESENTATION_REPRESENTATION('',(#359),#36);
#361=ADVANCED_BREP_SHAPE_REPRESENTATION('ABSR',(#351),#36);
#362=SHAPE_REPRESENTATION_RELATIONSHIP('SRR','None',#361,#41);
ENDSEC;
END-ISO-10303-21;
