ISO-10303-21;
HEADER;
/****************************************************************
 * Generated by software with PDE/Lib inside                    *
 * PDElib Version v51a, created Thu 12/14/2006                  *
 * International Technegroup Inc. (www.iti-oh.com)              *
 ****************************************************************/
FILE_DESCRIPTION((''),'2;1');
FILE_NAME('\\\\VICISRV2\\am\\Vault,D-CL_VICI\\Tech-Support\\Dimension Fittings\\5 Allg-Dokument\\446829.stp','2008-08-07T17:25:38',('Franzp'),(''),'Autodesk Inventor 2008','Autodesk Inventor 2008','');
FILE_SCHEMA(('AUTOMOTIVE_DESIGN { 1 0 10303 214 1 1 1 1 }'));
ENDSEC;
DATA;
#5=APPLICATION_CONTEXT('automotive design');
#6=APPLICATION_PROTOCOL_DEFINITION('International Standard','automotive_design',2001,#5);
#7=PRODUCT_CONTEXT('',#5,'mechanical');
#8=PRODUCT('446829','446829',$,(#7));
#9=PRODUCT_RELATED_PRODUCT_CATEGORY('part',$,(#8));
#10=PRODUCT_DEFINITION_FORMATION('',$,#8);
#11=PRODUCT_DEFINITION_CONTEXT('part definition',#5,'design');
#12=PRODUCT_DEFINITION('',$,#10,#11);
#18=(NAMED_UNIT(*)PLANE_ANGLE_UNIT()SI_UNIT($,.RADIAN.));
#19=DIMENSIONAL_EXPONENTS(0.0,0.0,0.0,0.0,0.0,0.0,0.0);
#20=PLANE_ANGLE_MEASURE_WITH_UNIT(PLANE_ANGLE_MEASURE(0.017453292500000),#18);
#24=(CONVERSION_BASED_UNIT('DEGREE',#20)NAMED_UNIT(#19)PLANE_ANGLE_UNIT());
#28=(NAMED_UNIT(*)SI_UNIT($,.STERADIAN.)SOLID_ANGLE_UNIT());
#32=(LENGTH_UNIT()NAMED_UNIT(*)SI_UNIT(.MILLI.,.METRE.));
#34=UNCERTAINTY_MEASURE_WITH_UNIT(LENGTH_MEASURE(0.010000000000000),#32,'DISTANCE_ACCURACY_VALUE','');
#36=(GEOMETRIC_REPRESENTATION_CONTEXT(3)GLOBAL_UNCERTAINTY_ASSIGNED_CONTEXT((#34))GLOBAL_UNIT_ASSIGNED_CONTEXT((#24,#28,#32))REPRESENTATION_CONTEXT('None','None'));
#37=AXIS2_PLACEMENT_3D('',#38,#39,#40);
#38=CARTESIAN_POINT('',(0.0,0.0,0.0));
#39=DIRECTION('',(0.0,0.0,1.0));
#40=DIRECTION('',(1.0,0.0,0.0));
#41=SHAPE_REPRESENTATION('',(#37),#36);
#42=PRODUCT_DEFINITION_SHAPE('','',#12);
#43=SHAPE_DEFINITION_REPRESENTATION(#42,#41);
#49=(NAMED_UNIT(*)PLANE_ANGLE_UNIT()SI_UNIT($,.RADIAN.));
#50=DIMENSIONAL_EXPONENTS(0.0,0.0,0.0,0.0,0.0,0.0,0.0);
#51=PLANE_ANGLE_MEASURE_WITH_UNIT(PLANE_ANGLE_MEASURE(0.017453292500000),#49);
#55=(CONVERSION_BASED_UNIT('DEGREE',#51)NAMED_UNIT(#50)PLANE_ANGLE_UNIT());
#59=(NAMED_UNIT(*)SI_UNIT($,.STERADIAN.)SOLID_ANGLE_UNIT());
#63=(LENGTH_UNIT()NAMED_UNIT(*)SI_UNIT(.MILLI.,.METRE.));
#65=UNCERTAINTY_MEASURE_WITH_UNIT(LENGTH_MEASURE(0.000001000000000),#63,'DISTANCE_ACCURACY_VALUE','');
#67=(GEOMETRIC_REPRESENTATION_CONTEXT(3)GLOBAL_UNCERTAINTY_ASSIGNED_CONTEXT((#65))GLOBAL_UNIT_ASSIGNED_CONTEXT((#55,#59,#63))REPRESENTATION_CONTEXT('','3D'));
#68=CARTESIAN_POINT('',(0.0,0.0,6.225000000000001));
#69=DIRECTION('',(0.0,0.0,-1.0));
#70=DIRECTION('',(-1.0,0.0,0.0));
#71=AXIS2_PLACEMENT_3D('',#68,#69,#70);
#72=CONICAL_SURFACE('',#71,3.050000000000000,44.999999999999993);
#73=CARTESIAN_POINT('',(2.925000000000000,-3.581974E-016,6.350000000000000));
#74=VERTEX_POINT('',#73);
#75=CARTESIAN_POINT('',(0.0,0.0,6.350000000000000));
#76=DIRECTION('',(0.0,0.0,-1.0));
#77=DIRECTION('',(-1.0,0.0,0.0));
#78=AXIS2_PLACEMENT_3D('',#75,#76,#77);
#79=CIRCLE('',#78,2.925000000000000);
#80=EDGE_CURVE('',#74,#74,#79,.T.);
#81=ORIENTED_EDGE('',*,*,#80,.T.);
#82=EDGE_LOOP('',(#81));
#83=FACE_OUTER_BOUND('',#82,.T.);
#84=CARTESIAN_POINT('',(3.175000000000000,3.888125E-016,6.100000000000000));
#85=VERTEX_POINT('',#84);
#86=CARTESIAN_POINT('',(0.0,0.0,6.100000000000000));
#87=DIRECTION('',(0.0,0.0,1.0));
#88=DIRECTION('',(-1.0,0.0,0.0));
#89=AXIS2_PLACEMENT_3D('',#86,#87,#88);
#90=CIRCLE('',#89,3.175000000000000);
#91=EDGE_CURVE('',#85,#85,#90,.T.);
#92=ORIENTED_EDGE('',*,*,#91,.T.);
#93=EDGE_LOOP('',(#92));
#94=FACE_BOUND('',#93,.T.);
#95=ADVANCED_FACE('',(#83,#94),#72,.T.);
#96=CARTESIAN_POINT('',(0.0,0.0,0.0));
#97=DIRECTION('',(0.0,0.0,1.0));
#98=DIRECTION('',(-1.0,0.0,0.0));
#99=AXIS2_PLACEMENT_3D('',#96,#97,#98);
#100=CYLINDRICAL_SURFACE('',#99,3.175000000000000);
#101=CARTESIAN_POINT('',(3.175000000000000,-3.888125E-016,0.250000000000000));
#102=VERTEX_POINT('',#101);
#103=CARTESIAN_POINT('',(0.0,0.0,0.250000000000000));
#104=DIRECTION('',(0.0,0.0,-1.0));
#105=DIRECTION('',(-1.0,0.0,0.0));
#106=AXIS2_PLACEMENT_3D('',#103,#104,#105);
#107=CIRCLE('',#106,3.175000000000000);
#108=EDGE_CURVE('',#102,#102,#107,.T.);
#109=ORIENTED_EDGE('',*,*,#108,.F.);
#110=EDGE_LOOP('',(#109));
#111=FACE_OUTER_BOUND('',#110,.T.);
#112=ORIENTED_EDGE('',*,*,#91,.F.);
#113=EDGE_LOOP('',(#112));
#114=FACE_BOUND('',#113,.T.);
#115=ADVANCED_FACE('',(#111,#114),#100,.T.);
#116=CARTESIAN_POINT('',(0.0,0.0,6.350000000000000));
#117=DIRECTION('',(0.0,0.0,-1.0));
#118=DIRECTION('',(-1.0,0.0,0.0));
#119=AXIS2_PLACEMENT_3D('',#116,#117,#118);
#120=PLANE('',#119);
#121=ORIENTED_EDGE('',*,*,#80,.F.);
#122=EDGE_LOOP('',(#121));
#123=FACE_OUTER_BOUND('',#122,.T.);
#124=CARTESIAN_POINT('',(2.0,0.0,6.350000000000000));
#125=VERTEX_POINT('',#124);
#126=CARTESIAN_POINT('',(0.0,0.0,6.350000000000000));
#127=DIRECTION('',(0.0,0.0,-1.0));
#128=DIRECTION('',(1.0,0.0,0.0));
#129=AXIS2_PLACEMENT_3D('',#126,#127,#128);
#130=CIRCLE('',#129,2.000000000000000);
#131=EDGE_CURVE('',#125,#125,#130,.T.);
#132=ORIENTED_EDGE('',*,*,#131,.T.);
#133=EDGE_LOOP('',(#132));
#134=FACE_BOUND('',#133,.T.);
#135=ADVANCED_FACE('',(#123,#134),#120,.F.);
#136=CARTESIAN_POINT('',(0.0,0.0,0.125000000000000));
#137=DIRECTION('',(0.0,0.0,1.0));
#138=DIRECTION('',(-1.0,0.0,0.0));
#139=AXIS2_PLACEMENT_3D('',#136,#137,#138);
#140=CONICAL_SURFACE('',#139,3.050000000000000,45.000000000000028);
#141=ORIENTED_EDGE('',*,*,#108,.T.);
#142=EDGE_LOOP('',(#141));
#143=FACE_OUTER_BOUND('',#142,.T.);
#144=CARTESIAN_POINT('',(2.925000000000000,3.581974E-016,0.0));
#145=VERTEX_POINT('',#144);
#146=CARTESIAN_POINT('',(0.0,0.0,0.0));
#147=DIRECTION('',(0.0,0.0,1.0));
#148=DIRECTION('',(-1.0,0.0,0.0));
#149=AXIS2_PLACEMENT_3D('',#146,#147,#148);
#150=CIRCLE('',#149,2.925000000000000);
#151=EDGE_CURVE('',#145,#145,#150,.T.);
#152=ORIENTED_EDGE('',*,*,#151,.T.);
#153=EDGE_LOOP('',(#152));
#154=FACE_BOUND('',#153,.T.);
#155=ADVANCED_FACE('',(#143,#154),#140,.T.);
#156=CARTESIAN_POINT('',(0.0,0.0,0.0));
#157=DIRECTION('',(0.0,0.0,-1.0));
#158=DIRECTION('',(-1.0,0.0,0.0));
#159=AXIS2_PLACEMENT_3D('',#156,#157,#158);
#160=PLANE('',#159);
#161=ORIENTED_EDGE('',*,*,#151,.F.);
#162=EDGE_LOOP('',(#161));
#163=FACE_OUTER_BOUND('',#162,.T.);
#164=CARTESIAN_POINT('',(-0.670000000000000,8.204863E-017,0.0));
#165=VERTEX_POINT('',#164);
#166=CARTESIAN_POINT('',(0.0,0.0,0.0));
#167=DIRECTION('',(0.0,0.0,-1.0));
#168=DIRECTION('',(1.0,0.0,0.0));
#169=AXIS2_PLACEMENT_3D('',#166,#167,#168);
#170=CIRCLE('',#169,0.670000000000000);
#171=EDGE_CURVE('',#165,#165,#170,.T.);
#172=ORIENTED_EDGE('',*,*,#171,.F.);
#173=EDGE_LOOP('',(#172));
#174=FACE_BOUND('',#173,.T.);
#175=ADVANCED_FACE('',(#163,#174),#160,.T.);
#176=CARTESIAN_POINT('',(0.0,0.0,0.125000000000000));
#177=DIRECTION('',(0.0,0.0,-1.0));
#178=DIRECTION('',(1.0,0.0,0.0));
#179=AXIS2_PLACEMENT_3D('',#176,#177,#178);
#180=CONICAL_SURFACE('',#179,0.545000000000000,44.999999999999979);
#181=CARTESIAN_POINT('',(-0.420000000000000,-5.143347E-017,0.250000000000000));
#182=VERTEX_POINT('',#181);
#183=CARTESIAN_POINT('',(0.0,0.0,0.250000000000000));
#184=DIRECTION('',(0.0,0.0,1.0));
#185=DIRECTION('',(1.0,0.0,0.0));
#186=AXIS2_PLACEMENT_3D('',#183,#184,#185);
#187=CIRCLE('',#186,0.420000000000000);
#188=EDGE_CURVE('',#182,#182,#187,.T.);
#189=ORIENTED_EDGE('',*,*,#188,.T.);
#190=EDGE_LOOP('',(#189));
#191=FACE_OUTER_BOUND('',#190,.T.);
#192=ORIENTED_EDGE('',*,*,#171,.T.);
#193=EDGE_LOOP('',(#192));
#194=FACE_BOUND('',#193,.T.);
#195=ADVANCED_FACE('',(#191,#194),#180,.F.);
#196=CARTESIAN_POINT('',(-0.420000000000000,-5.143347E-017,1.269999999999999));
#197=CARTESIAN_POINT('',(-0.420000000000000,-5.143347E-017,0.250000000000000));
#198=CARTESIAN_POINT('',(-0.420000000000000,-0.420000000000000,1.269999999999999));
#199=CARTESIAN_POINT('',(-0.420000000000000,-0.420000000000000,0.250000000000000));
#200=CARTESIAN_POINT('',(5.143347E-017,-0.420000000000000,1.269999999999999));
#201=CARTESIAN_POINT('',(5.143347E-017,-0.420000000000000,0.250000000000000));
#202=CARTESIAN_POINT('',(0.420000000000000,-0.420000000000000,1.269999999999999));
#203=CARTESIAN_POINT('',(0.420000000000000,-0.420000000000000,0.250000000000000));
#204=CARTESIAN_POINT('',(0.420000000000000,5.143347E-017,1.269999999999999));
#205=CARTESIAN_POINT('',(0.420000000000000,5.143347E-017,0.250000000000000));
#206=CARTESIAN_POINT('',(0.420000000000000,0.420000000000000,1.269999999999999));
#207=CARTESIAN_POINT('',(0.420000000000000,0.420000000000000,0.250000000000000));
#208=CARTESIAN_POINT('',(-5.143347E-017,0.420000000000000,1.269999999999999));
#209=CARTESIAN_POINT('',(-5.143347E-017,0.420000000000000,0.250000000000000));
#210=CARTESIAN_POINT('',(-0.420000000000000,0.420000000000000,1.269999999999999));
#211=CARTESIAN_POINT('',(-0.420000000000000,0.420000000000000,0.250000000000000));
#212=CARTESIAN_POINT('',(-0.420000000000000,-5.143347E-017,1.269999999999999));
#213=CARTESIAN_POINT('',(-0.420000000000000,-5.143347E-017,0.250000000000000));
#221=(BOUNDED_SURFACE()B_SPLINE_SURFACE(1,2,((#196,#198,#200,#202,#204,#206,#208,#210,#212),(#197,#199,#201,#203,#205,#207,#209,#211,#213)),.UNSPECIFIED.,.F.,.T.,.U.)B_SPLINE_SURFACE_WITH_KNOTS((2,2),(3,2,2,2,3),(-14.091720543005637,-11.663149114434214),(0.0,0.659734457253857,1.319468914507713,1.979203371761570,2.638937829015426),.UNSPECIFIED.)GEOMETRIC_REPRESENTATION_ITEM()RATIONAL_B_SPLINE_SURFACE(((1.0,0.707106781186548,1.0,0.707106781186548,1.0,0.707106781186548,1.0,0.707106781186548,1.0),(1.0,0.707106781186548,1.0,0.707106781186548,1.0,0.707106781186548,1.0,0.707106781186548,1.0)))REPRESENTATION_ITEM('')SURFACE());
#222=CARTESIAN_POINT('',(-0.420000000000000,5.143347E-017,1.269999999999999));
#223=VERTEX_POINT('',#222);
#224=CARTESIAN_POINT('',(0.0,0.0,1.269999999999999));
#225=DIRECTION('',(0.0,0.0,-1.0));
#226=DIRECTION('',(1.0,0.0,0.0));
#227=AXIS2_PLACEMENT_3D('',#224,#225,#226);
#228=CIRCLE('',#227,0.420000000000000);
#229=EDGE_CURVE('',#223,#223,#228,.T.);
#230=ORIENTED_EDGE('',*,*,#229,.F.);
#231=EDGE_LOOP('',(#230));
#232=FACE_OUTER_BOUND('',#231,.T.);
#233=ORIENTED_EDGE('',*,*,#188,.F.);
#234=EDGE_LOOP('',(#233));
#235=FACE_BOUND('',#234,.T.);
#236=ADVANCED_FACE('',(#232,#235),#221,.F.);
#237=CARTESIAN_POINT('',(0.0,0.0,1.394999999999999));
#238=DIRECTION('',(0.0,0.0,1.0));
#239=DIRECTION('',(1.0,0.0,0.0));
#240=AXIS2_PLACEMENT_3D('',#237,#238,#239);
#241=CONICAL_SURFACE('',#240,0.545000000000000,44.999999999999901);
#242=CARTESIAN_POINT('',(-0.670000000000000,-8.204863E-017,1.520000000000000));
#243=VERTEX_POINT('',#242);
#244=CARTESIAN_POINT('',(0.0,0.0,1.520000000000000));
#245=DIRECTION('',(0.0,0.0,1.0));
#246=DIRECTION('',(1.0,0.0,0.0));
#247=AXIS2_PLACEMENT_3D('',#244,#245,#246);
#248=CIRCLE('',#247,0.670000000000000);
#249=EDGE_CURVE('',#243,#243,#248,.T.);
#250=ORIENTED_EDGE('',*,*,#249,.T.);
#251=EDGE_LOOP('',(#250));
#252=FACE_OUTER_BOUND('',#251,.T.);
#253=ORIENTED_EDGE('',*,*,#229,.T.);
#254=EDGE_LOOP('',(#253));
#255=FACE_BOUND('',#254,.T.);
#256=ADVANCED_FACE('',(#252,#255),#241,.F.);
#257=CARTESIAN_POINT('',(-1.651000000000000,1.651000000000000,1.520000000000000));
#258=CARTESIAN_POINT('',(1.651000000000000,1.651000000000000,1.520000000000000));
#259=CARTESIAN_POINT('',(-1.651000000000000,-1.651000000000000,1.520000000000000));
#260=CARTESIAN_POINT('',(1.651000000000000,-1.651000000000000,1.520000000000000));
#261=B_SPLINE_SURFACE_WITH_KNOTS('',1,1,((#257,#259),(#258,#260)),.UNSPECIFIED.,.F.,.F.,.U.,(2,2),(2,2),(0.0,3.302000000000001),(0.0,3.302000000000001),.UNSPECIFIED.);
#262=CARTESIAN_POINT('',(1.651000000000000,0.0,1.520000000000000));
#263=VERTEX_POINT('',#262);
#264=CARTESIAN_POINT('',(0.0,0.0,1.520000000000000));
#265=DIRECTION('',(0.0,0.0,1.0));
#266=DIRECTION('',(1.0,0.0,0.0));
#267=AXIS2_PLACEMENT_3D('',#264,#265,#266);
#268=CIRCLE('',#267,1.651000000000000);
#269=EDGE_CURVE('',#263,#263,#268,.T.);
#270=ORIENTED_EDGE('',*,*,#269,.T.);
#271=EDGE_LOOP('',(#270));
#272=FACE_OUTER_BOUND('',#271,.T.);
#273=ORIENTED_EDGE('',*,*,#249,.F.);
#274=EDGE_LOOP('',(#273));
#275=FACE_BOUND('',#274,.T.);
#276=ADVANCED_FACE('',(#272,#275),#261,.F.);
#277=CARTESIAN_POINT('',(-1.999999999999999,-2.449213E-016,6.350000000000000));
#278=CARTESIAN_POINT('',(-1.650999999999999,-2.021825E-016,6.000999999999999));
#279=CARTESIAN_POINT('',(-1.999999999999999,-1.999999999999999,6.350000000000000));
#280=CARTESIAN_POINT('',(-1.650999999999999,-1.650999999999999,6.000999999999999));
#281=CARTESIAN_POINT('',(2.449213E-016,-1.999999999999999,6.350000000000000));
#282=CARTESIAN_POINT('',(2.021825E-016,-1.650999999999999,6.000999999999999));
#283=CARTESIAN_POINT('',(1.999999999999999,-1.999999999999999,6.350000000000000));
#284=CARTESIAN_POINT('',(1.650999999999999,-1.650999999999999,6.000999999999999));
#285=CARTESIAN_POINT('',(1.999999999999999,2.449213E-016,6.350000000000000));
#286=CARTESIAN_POINT('',(1.650999999999999,2.021825E-016,6.000999999999999));
#287=CARTESIAN_POINT('',(1.999999999999999,1.999999999999999,6.350000000000000));
#288=CARTESIAN_POINT('',(1.650999999999999,1.650999999999999,6.000999999999999));
#289=CARTESIAN_POINT('',(-2.449213E-016,1.999999999999999,6.350000000000000));
#290=CARTESIAN_POINT('',(-2.021825E-016,1.650999999999999,6.000999999999999));
#291=CARTESIAN_POINT('',(-1.999999999999999,1.999999999999999,6.350000000000000));
#292=CARTESIAN_POINT('',(-1.650999999999999,1.650999999999999,6.000999999999999));
#293=CARTESIAN_POINT('',(-1.999999999999999,-2.449213E-016,6.350000000000000));
#294=CARTESIAN_POINT('',(-1.650999999999999,-2.021825E-016,6.000999999999999));
#302=(BOUNDED_SURFACE()B_SPLINE_SURFACE(1,2,((#277,#279,#281,#283,#285,#287,#289,#291,#293),(#278,#280,#282,#284,#286,#288,#290,#292,#294)),.UNSPECIFIED.,.F.,.T.,.U.)B_SPLINE_SURFACE_WITH_KNOTS((2,2),(3,2,2,2,3),(-0.135185026915423,0.135185026915424),(0.0,2.867488694564084,5.734977389128168,8.602466083692251,11.469954778256335),.UNSPECIFIED.)GEOMETRIC_REPRESENTATION_ITEM()RATIONAL_B_SPLINE_SURFACE(((1.0,0.707106781186548,1.0,0.707106781186548,1.0,0.707106781186548,1.0,0.707106781186548,1.0),(1.0,0.707106781186548,1.0,0.707106781186548,1.0,0.707106781186548,1.0,0.707106781186548,1.0)))REPRESENTATION_ITEM('')SURFACE());
#303=ORIENTED_EDGE('',*,*,#131,.F.);
#304=EDGE_LOOP('',(#303));
#305=FACE_OUTER_BOUND('',#304,.T.);
#306=CARTESIAN_POINT('',(1.651000000000000,0.0,6.001000000000001));
#307=VERTEX_POINT('',#306);
#308=CARTESIAN_POINT('',(0.0,0.0,6.000999999999999));
#309=DIRECTION('',(0.0,0.0,1.0));
#310=DIRECTION('',(1.0,0.0,0.0));
#311=AXIS2_PLACEMENT_3D('',#308,#309,#310);
#312=CIRCLE('',#311,1.651000000000000);
#313=EDGE_CURVE('',#307,#307,#312,.T.);
#314=ORIENTED_EDGE('',*,*,#313,.F.);
#315=EDGE_LOOP('',(#314));
#316=FACE_BOUND('',#315,.T.);
#317=ADVANCED_FACE('',(#305,#316),#302,.F.);
#318=CARTESIAN_POINT('',(-1.651000000000000,-2.021825E-016,6.000999999999999));
#319=CARTESIAN_POINT('',(-1.651000000000000,-2.021825E-016,1.520000000000000));
#320=CARTESIAN_POINT('',(-1.651000000000000,-1.651000000000000,6.000999999999999));
#321=CARTESIAN_POINT('',(-1.651000000000000,-1.651000000000000,1.520000000000000));
#322=CARTESIAN_POINT('',(2.021825E-016,-1.651000000000000,6.000999999999999));
#323=CARTESIAN_POINT('',(2.021825E-016,-1.651000000000000,1.520000000000000));
#324=CARTESIAN_POINT('',(1.651000000000000,-1.651000000000000,6.000999999999999));
#325=CARTESIAN_POINT('',(1.651000000000000,-1.651000000000000,1.520000000000000));
#326=CARTESIAN_POINT('',(1.651000000000000,2.021825E-016,6.000999999999999));
#327=CARTESIAN_POINT('',(1.651000000000000,2.021825E-016,1.520000000000000));
#328=CARTESIAN_POINT('',(1.651000000000000,1.651000000000000,6.000999999999999));
#329=CARTESIAN_POINT('',(1.651000000000000,1.651000000000000,1.520000000000000));
#330=CARTESIAN_POINT('',(-2.021825E-016,1.651000000000000,6.000999999999999));
#331=CARTESIAN_POINT('',(-2.021825E-016,1.651000000000000,1.520000000000000));
#332=CARTESIAN_POINT('',(-1.651000000000000,1.651000000000000,6.000999999999999));
#333=CARTESIAN_POINT('',(-1.651000000000000,1.651000000000000,1.520000000000000));
#334=CARTESIAN_POINT('',(-1.651000000000000,-2.021825E-016,6.000999999999999));
#335=CARTESIAN_POINT('',(-1.651000000000000,-2.021825E-016,1.520000000000000));
#343=(BOUNDED_SURFACE()B_SPLINE_SURFACE(1,2,((#318,#320,#322,#324,#326,#328,#330,#332,#334),(#319,#321,#323,#325,#327,#329,#331,#333,#335)),.UNSPECIFIED.,.F.,.T.,.U.)B_SPLINE_SURFACE_WITH_KNOTS((2,2),(3,2,2,2,3),(-1.251362810417928,1.462749848576620),(0.0,2.593384735538375,5.186769471076749,7.780154206615124,10.373538942153498),.UNSPECIFIED.)GEOMETRIC_REPRESENTATION_ITEM()RATIONAL_B_SPLINE_SURFACE(((1.0,0.707106781186548,1.0,0.707106781186548,1.0,0.707106781186548,1.0,0.707106781186548,1.0),(1.0,0.707106781186548,1.0,0.707106781186548,1.0,0.707106781186548,1.0,0.707106781186548,1.0)))REPRESENTATION_ITEM('')SURFACE());
#344=ORIENTED_EDGE('',*,*,#313,.T.);
#345=EDGE_LOOP('',(#344));
#346=FACE_OUTER_BOUND('',#345,.T.);
#347=ORIENTED_EDGE('',*,*,#269,.F.);
#348=EDGE_LOOP('',(#347));
#349=FACE_BOUND('',#348,.T.);
#350=ADVANCED_FACE('',(#346,#349),#343,.F.);
#351=CLOSED_SHELL('',(#95,#115,#135,#155,#175,#195,#236,#256,#276,#317,#350));
#352=MANIFOLD_SOLID_BREP('',#351);
#353=COLOUR_RGB('',0.639215707778931,0.639215707778931,0.686274528503418);
#354=DRAUGHTING_PRE_DEFINED_CURVE_FONT('continuous');
#355=CURVE_STYLE('',#354,POSITIVE_LENGTH_MEASURE(0.100000000000000),#353);
#356=FILL_AREA_STYLE_COLOUR('',#353);
#357=FILL_AREA_STYLE('',(#356));
#358=SURFACE_STYLE_FILL_AREA(#357);
#359=SURFACE_SIDE_STYLE('',(#358));
#360=SURFACE_STYLE_USAGE(.BOTH.,#359);
#361=PRESENTATION_STYLE_ASSIGNMENT((#355,#360));
#362=STYLED_ITEM('',(#361),#115);
#363=MECHANICAL_DESIGN_GEOMETRIC_PRESENTATION_REPRESENTATION('',(#362,#371),#67);
#364=COLOUR_RGB('Metall - Stahl',0.639215707778931,0.639215707778931,0.686274528503418);
#365=FILL_AREA_STYLE_COLOUR('Metall - Stahl',#364);
#366=FILL_AREA_STYLE('Metall - Stahl',(#365));
#367=SURFACE_STYLE_FILL_AREA(#366);
#368=SURFACE_SIDE_STYLE('Metall - Stahl',(#367));
#369=SURFACE_STYLE_USAGE(.BOTH.,#368);
#370=PRESENTATION_STYLE_ASSIGNMENT((#369));
#371=STYLED_ITEM('',(#370),#352);
#372=ADVANCED_BREP_SHAPE_REPRESENTATION('ABSR',(#352),#36);
#373=SHAPE_REPRESENTATION_RELATIONSHIP('SRR','None',#372,#41);
ENDSEC;
END-ISO-10303-21;
